Song Information for Insanity

Song Title:Insanity
Artist:Rage
Hits:827
{t:Insanity}
 {st:Rage}
 
 As recorded by Rage
 (From the 2002 Album UNITY)
 
 Transcribed by Florian Kochems
 
 Music by Victor Smolski
 
 Gtr I (D G C F A D) - 'Victor Smolski'
 
 Intro
 Q=150
 N.C. C5 N.C.
 [4/4] Gtr I
 E S S E S S E S S S S E E S S E S S S S E Q E S S E S S E S S S S E
 
 {sot}
 ||--------------------------|----------------------|---------------------------|
 ||o-------------------------|----------------------|---------------------------|
 ||--------------------------|-------------------5--|---------------------------|
 ||--------------------------|-------------------5--|---------------------------|
 ||o-------------------------|-------------------3--|---------------------------|
 ||--0-0-0-3-0-0-2-0-0-2h3p2-|-0-0-0-3-0-0-2h3p2----|-0-0-0-3-0-0-2-0-0-2h3p2---|
 {eot}
 
 C5 N.C. C5
 E S S E S S S S E Q E S S E S S E S S S S E E S S E S S S S E Q
 
 {sot}
 |----------------------|-------------------------|----------------------|
 |----------------------|-------------------------|----------------------|
 |-------------------5--|-------------------------|-------------------5--|
 |-------------------5--|-------------------------|-------------------5--|
 |-------------------3--|-------------------------|-------------------3--|
 |-0-0-0-3-0-0-2h3p2----|-0-0-0-3-0-0-2-0-0-2h3p2-|-0-0-0-3-0-0-2h3p2----|
 {eot}
 
 N.C. C5
 E S S E S S E S S S S E E S S E S S S S E Q
 
 {sot}
 |-------------------------|----------------------||
 |-------------------------|----------------------||
 |-------------------------|-------------------5--||
 |-------------------------|-------------------5--||
 |-------------------------|-------------------3--||
 |-0-0-0-3-0-0-2-0-0-2h3p2-|-0-0-0-3-0-0-2h3p2----||
 {eot}
 
 Verse
 [G5] < [F#5] < [F5] < [E5]<
 W W W W
 
 {sot}
 |-----------|-----------|-----------|------|
 |-----------|-----------|-----------|------|
 |-----------|-----------|-----------|------|
 |-12--------|-11--------|-10--------|-9----|
 |-10--------|--9--------|--8--------|-7----|
 |-----------|-----------|-----------|------|
 {eot}
 
 [G5] < [F#5] < [F5] < [E5]<
 W W W W
 
 {sot}
 |-----------|-----------|-----------|------|
 |-----------|-----------|-----------|------|
 |-----------|-----------|-----------|------|
 |-12--------|-11--------|-10--------|-9----|
 |-10--------|--9--------|--8--------|-7----|
 |-----------|-----------|-----------|------|
 {eot}
 
 N.C. G5 N.C. F#5 N.C. F5 N.C. E5
 
 {sot}
 PM--| PM--| PM--| PM--|
 {eot}
 [E] [E] [E] [E] [+H] [E] [E] [E] [E] [+H] [E] [E] [E] [E] [+H] [E] [E] [E] [E] [+H] 
 {sot}
 |-------------------|-------------------|-------------------|-----------------|
 |-------------------|-------------------|-------------------|-----------------|
 |-------------------|-------------------|-------------------|-----------------|
 |-------12-(12)\----|-------11-(11)\----|-------10-(10)\----|-------9-(9)\----|
 |-------10-(10)\----|--------9--(9)\----|--------8--(8)\----|-------7-(7)\----|
 |-0-0-0-------------|-0-0-0-------------|-0-0-0-------------|-0-0-0-----------|
 {eot}
 
 N.C. G5 N.C. F#5 N.C. F5 N.C. E5
 
 {sot}
 PM--| PM--| PM--| PM--|
 {eot}
 [E] [E] [E] [E] [+H] [E] [E] [E] [E] [+H] [E] [E] [E] [E] [+H] [E] [E] [E] [E] [+H] 
 {sot}
 |-------------------|-------------------|-------------------|-----------------||
 |-------------------|-------------------|-------------------|-----------------||
 |-------------------|-------------------|-------------------|-----------------||
 |-------12-(12)\----|-------11-(11)\----|-------10-(10)\----|-------9-(9)\----||
 |-------10-(10)\----|--------9--(9)\----|--------8--(8)\----|-------7-(7)\----||
 |-0-0-0-------------|-0-0-0-------------|-0-0-0-------------|-0-0-0-----------||
 {eot}
 
 Bridge
 G5 N.C.
 
 {sot}
 PM----| PM----| PM|
 {eot}
 W +W S S S S S S S S S S S S S S S S
 
 {sot}
 |----------|------------|----------------------------------|
 |----------|------------|----------------------------------|
 |----------|------------|----------------------------------|
 |----------|------------|----------------------------------|
 |-5--------|-(5)--------|-5h7---------5h7------------------|
 |-3--------|-(3)--------|-----0-0-0-0-----0-0-0-0-7p0-0-0--|
 {eot}
 
 [G5] 
 {sot}
 PM----| PM----| PM|
 {eot}
 S S S S S S S S S S S S S S S S W +W
 
 {sot}
 |---------------------------------|----------|--------|
 |---------------------------------|----------|--------|
 |---------------------------------|----------|--------|
 |---------------------------------|----------|--------|
 |-5h7---------5h7-----------------|-5--------|-(5)----|
 |-----0-0-0-0-----0-0-0-0-7p0-0-0-|-3--------|-(3)----|
 {eot}
 
 N.C.
 
 {sot}
 PM----| PM----| PM| PM----| PM----| PM|
 {eot}
 S S S S S S S S S S S S S S S S S S S S S S S S S S S S S S S S
 
 {sot}
 |---------------------------------|---------------------------------|
 |---------------------------------|---------------------------------|
 |---------------------------------|---------------------------------|
 |---------------------------------|---------------------------------|
 |-5h7---------5h7-----------------|-5h7---------5h7-----------------|
 |-----0-0-0-0-----0-0-0-0-7p0-0-0-|-----0-0-0-0-----0-0-0-0-7p0-0-0-|
 {eot}
 
 [C5/A] [G/A] [D5/A] [C5/A] [G/A] [D5] 
 {sot}
 PM------| PM------| PM--| PM------| PM------| ~
 {eot}
 S S S S S S S S S S S S S S S S S S S S S S S S S S S S Q
 
 {sot}
 |---------------------------------|----------------------------|
 |---------------------------------|----------------------------|
 |-5-----------4-----------7-------|-5-----------4-----------7--|
 |-5-----------5-----------5-------|-5-----------5-----------5--|
 |---0-0-0-0-0---0-0-0-0-0---0-0-0-|---0-0-0-0-0---0-0-0-0-0----|
 |---------------------------------|----------------------------|
 {eot}
 
 [C5] [G/C] [D5/C] [C5] [G/C] [(Csus4)] 
 {sot}
 PM------| PM------| PM--| PM--|
 {eot}
 S S S S S S S S S S S S S S S S S S S S S S S S S S S S S S E
 
 {sot}
 |---------------------------------|----------------------------------|
 |---------------------------------|-------------------------6-6-[5]--|
 |-5-----------4-----------7-------|-5-----------4-------5-5----------|
 |-5-----------5-----------5-------|-5-----------5---5-5--------------|
 |---3-3-3-3-3---3-3-3-3-3---3-3-3-|---3-3-3-3-3---3------------------|
 |---------------------------------|----------------------------------|
 {eot}
 
 [C5/A] [G/A] [D5/A] [C5/A] [G/A] [D5] 
 {sot}
 PM------| PM------| PM--| PM------| PM------| ~
 {eot}
 S S S S S S S S S S S S S S S S S S S S S S S S S S S S Q
 
 {sot}
 |---------------------------------|----------------------------|
 |---------------------------------|----------------------------|
 |-5-----------4-----------7-------|-5-----------4-----------7--|
 |-5-----------5-----------5-------|-5-----------5-----------5--|
 |---0-0-0-0-0---0-0-0-0-0---0-0-0-|---0-0-0-0-0---0-0-0-0-0----|
 |---------------------------------|----------------------------|
 {eot}
 
 [C5] [G/C] [D5/C] [C5] [G] 
 {sot}
 PM------| PM------| PM--| PM--|
 {eot}
 S S S S S S S S S S S S S S S S S S S S E E E E E E
 
 {sot}
 |---------------------------------|---------------------------------||
 |---------------------------------|---------------------------||
 |-5-----------4-----------7-------|-5-------------------------||
 |-5-----------5-----------5-------|-5-------------------------||
 |---3-3-3-3-3---3-3-3-3-3---3-3-3-|---3-3-3-------------------------||
 |---------------------------------|---------------------------------||
 {eot}
 
 Chorus
 [G5]W [F5]W [E5]W [C5]H [B5]H
 
 {sot}
 |----------|----------|----------|-----------|
 |----------|----------|----------|-----------|
 |----------|----------|----------|-----------|
 |----------|----------|----------|-5----4----|
 |-5--------|-3--------|-2--------|-3----2----|
 |-3--------|-1--------|-0--------|-----------|
 {eot}
 
 [G5]W [F5]W [E5]W [C5]H [D5]H
 
 {sot}
 |----------|----------|----------|------------||
 |----------|----------|----------|-----------o||
 |----------|----------|----------|------------||
 |----------|----------|----------|-5----7-----||
 |-5--------|-3--------|-2--------|-3----5----o||
 |-3--------|-1--------|-0--------|------------||
 {eot}
 
 [G5]W [F5]W [E5]W [C5]H [B5]H
 
 {sot}
 |----------|----------|----------|-----------|
 |----------|----------|----------|-----------|
 |----------|----------|----------|-----------|
 |----------|----------|----------|-5----4----|
 |-5--------|-3--------|-2--------|-3----2----|
 |-3--------|-1--------|-0--------|-----------|
 {eot}
 
 [G5]W [F5]W [E5]W [C5]H [D5]H
 
 {sot}
 |----------|----------|----------|-----------|
 |----------|----------|----------|-----------|
 |----------|----------|----------|-----------|
 |----------|----------|----------|-5----7----|
 |-5--------|-3--------|-2--------|-3----5----|
 |-3--------|-1--------|-0--------|-----------|
 {eot}
 
 Interlude
 N.C. C5
 
 {sot}
 PM--| PM--| PM--|
 {eot}
 S S S E. S S S E. S S S S E S S E S S S S E Q
 
 {sot}
 |---------------------------|----------------------|
 |---------------------------|----------------------|
 |---------------------------|-------------------5--|
 |---------------------------|-------------------5--|
 |---------------------------|-------------------3--|
 |-0-0-0----0-0-0----0-0-0---|---0-0-3-0-0-2h3p2----|
 {eot}
 
 N.C.
 
 {sot}
 PM--| PM--| PM--|
 {eot}
 S S S E. S S S E. S S S S
 
 {sot}
 |-----------------------------|
 |-----------------------------|
 |-----------------------------|
 |-----------------------------|
 |-----------------------------|
 |-0-0-0----0-0-0----0-0-0-----|
 {eot}
 
 C5 N.C. C5
 
 {sot}
 PM--| PM--| PM--|
 {eot}
 E S S E S S S S E Q S S S E. S S S E. S S S S E S S E S S S S E Q
 
 {sot}
 |----------------------|---------------------------|----------------------|
 |----------------------|---------------------------|----------------------|
 |-------------------5--|---------------------------|-------------------5--|
 |-------------------5--|---------------------------|-------------------5--|
 |-------------------3--|---------------------------|-------------------3--|
 |---0-0-3-0-0-2h3p2----|-0-0-0----0-0-0----0-0-0---|---0-0-3-0-0-2h3p2----|
 {eot}
 
 N.C. C5
 
 {sot}
 PM--| PM--| PM--|
 {eot}
 S S S E. S S S E. S S S S E S S E S S S S E Q
 
 {sot}
 |---------------------------|----------------------|
 |---------------------------|----------------------|
 |---------------------------|-------------------5--|
 |---------------------------|-------------------5--|
 |---------------------------|-------------------3--|
 |-0-0-0----0-0-0----0-0-0---|---0-0-3-0-0-2h3p2----|
 {eot}
 
 N.C.
 
 {sot}
 PM----| PM----| PM----| PM----| ~~~
 {eot}
 S S S S E S S S S E S S S S E S S S S E S S E Q
 
 {sot}
 |-----------------------------|------------------------|
 |-----------------------------|------------------------|
 |-----------------------------|-------------------[3]--|
 |---------5---------5---------|-5---------5-4h5p4------|
 |-7-7-7-7---7-7-7-7---7-7-7-7-|---7-7-7-7--------------|
 |-----------------------------|------------------------|
 PM----| PM----| PM----| PM----| ~~~
 {eot}
 S S S S E S S S S E S S S S E S S S S E S S E Q
 
 {sot}
 |-----------------------------|------------------------|
 |-----------------------------|------------------------|
 |-----------------------------|-------------------[3]--|
 |---------5---------5---------|-5---------5-4h5p4------|
 |-7-7-7-7---7-7-7-7---7-7-7-7-|---7-7-7-7--------------|
 |-----------------------------|------------------------|
 PM----| PM----| PM----| PM----| ~~~
 {eot}
 S S S S E S S S S E S S S S E S S S S E S S E Q
 
 {sot}
 |-----------------------------|------------------------------|
 |-----------------------------|------------------------------|
 |---------3---------4---------|-3---------4--3h==4p==3--[3]--|
 |---------5---------5---------|-5---------5-(5)-(5)-(5)------|
 |-7-7-7-7---7-7-7-7---7-7-7-7-|---7-7-7-7--------------------|
 |-----------------------------|------------------------------|
 PM----| PM----| PM----| PM----| ~~~
 {eot}
 S S S S E S S S S E S S S S E S S S S E S S E Q
 
 {sot}
 |-----------------------------|------------------------------|
 |-----------------------------|------------------------------|
 |---------3---------4---------|-3---------4--3h==4p==3--[3]--|
 |---------5---------5---------|-5---------5-(5)-(5)-(5)------|
 |-7-7-7-7---7-7-7-7---7-7-7-7-|---7-7-7-7--------------------|
 |-----------------------------|------------------------------|
 {eot}
 
 Guitar Solo
 [Gadd9] |--3--|
 E E E Q E E E Q. S S S Q. +S S
 
 {sot}
 |-----------------------|-------------14-17b19r==(17)p15-|
 |-----------------------|----------15--------------------|
 |-12----12-14-----14-14s|=16----14-----------------------|
 |----12--------12-------|--------------------------------|
 |-----------------------|--------------------------------|
 |-----------------------|--------------------------------|
 {eot}
 
 [Em7] |3-|
 H +E S S Q E +W
 
 {sot}
 |-14----(14)-15p14-----------|----------|
 |------------------15-15b17==|=(15)r----|
 |----------------------------|----------|
 |----------------------------|----------|
 |----------------------------|----------|
 |----------------------------|----------|
 {eot}
 
 [Dm7] \1/ \1/ \1/
 Q. Q. Q +E S S S S S S E. S S S E
 
 {sot}
 |---------------------|------------12----------15p13p12-------|
 |---------------13----|-(13)----13----15p13p12----------15p13-|
 |---------------------|------14-------------------------------|
 |-12-----15-----------|---------------------------------------|
 |---------------------|---------------------------------------|
 |---------------------|---------------------------------------|
 {eot}
 
 [Bm7] |--3--|[Em7]
 H Q Q Q H +E E E E
 
 {sot}
 |--------------------|--------------------12-----|
 |--------------------|-----------------12----12--|
 |-11tr12----11-12-14-|-14b16=====(14)r-----------|
 |--------------------|---------------------------|
 |--------------------|---------------------------|
 |--------------------|---------------------------|
 {eot}
 
 [Dsus4] ~~~~~~ ~~~
 H.. S S H. Q
 
 {sot}
 |---------------------|---------------|
 |-15b17========15rp12-|-15-------15\--|
 |---------------------|---------------|
 |---------------------|---------------|
 |---------------------|---------------|
 |---------------------|---------------|
 {eot}
 
 [D] ~~
 |--3--|
 S S S S S S S S S S Q S S S W
 
 {sot}
 |----------10-14p10----------14-17\--------17-|-22----||
 |-------10----------------15------------19----|-------||
 |----14----------------14------------19-------|-------||
 |-12----------------16------------------------|-------||
 |---------------------------------------------|-------||
 |---------------------------------------------|-------||
 {eot}
 
 Chorus
 [G5]W [F5]W [E5]W [C5]H [B5]H
 
 {sot}
 |----------|----------|----------|-----------|
 |----------|----------|----------|-----------|
 |----------|----------|----------|-----------|
 |----------|----------|----------|-5----4----|
 |-5--------|-3--------|-2--------|-3----2----|
 |-3--------|-1--------|-0--------|-----------|
 {eot}
 
 [G5]W [F5]W [E5]W [C5]E E E E [D5]E E E E
 
 {sot}
 |----------|----------|----------|-----------------|
 |----------|----------|----------|-----------------|
 |----------|----------|----------|-----------------|
 |----------|----------|----------|-5-5-5-5-7-7-7-7-|
 |-5--------|-3--------|-2--------|-3-3-3-3-5-5-5-5-|
 |-3--------|-1--------|-0--------|-----------------|
 {eot}
 
 [G5]W [F5]W [E5]W [C5]H [B5]H
 
 {sot}
 |----------|----------|----------|-----------|
 |----------|----------|----------|-----------|
 |----------|----------|----------|-----------|
 |----------|----------|----------|-5----4----|
 |-5--------|-3--------|-2--------|-3----2----|
 |-3--------|-1--------|-0--------|-----------|
 {eot}
 
 [G5]W [F5]W [E5]W [C5]H [D5]H
 
 {sot}
 |----------|----------|----------|-----------|
 |----------|----------|----------|-----------|
 |----------|----------|----------|-----------|
 |----------|----------|----------|-5----7----|
 |-5--------|-3--------|-2--------|-3----5----|
 |-3--------|-1--------|-0--------|-----------|
 {eot}
 
 [G5] [F5] 
 {sot}
 PM--------| PM----| PM--------| PM----|
 {eot}
 E S S S S S S E S S S S E E S S S S S S E S S S S E
 
 {sot}
 |---------------------------|---------------------------|
 |---------------------------|---------------------------|
 |---------------------------|---------------------------|
 |---------------------------|---------------------------|
 |-5-------------5---------5-|-3-------------3---------3-|
 |-3-3-3-3-3-3-3-3-3-3-3-3-3-|-1-1-1-1-1-1-1-1-1-1-1-1-1-|
 {eot}
 
 [E5] [C5] [B5] 
 {sot}
 PM--------| PM----| PM--------| PM--------|
 {eot}
 E S S S S S S E S S S S E E S S S S S S E S S S S S S
 
 {sot}
 |---------------------------|------------------------------|
 |---------------------------|------------------------------|
 |---------------------------|------------------------------|
 |---------------------------|-5-------------4--------------|
 |-2-------------2---------2-|-3-3-3-3-3-3-3-2-2-2-2-2-2-2--|
 |-0-0-0-0-0-0-0-0-0-0-0-0-0-|------------------------------|
 {eot}
 
 [G5] [F5] 
 {sot}
 PM--------| PM----| PM--------| PM----|
 {eot}
 E S S S S S S E S S S S E E S S S S S S E S S S S E
 
 {sot}
 |---------------------------|---------------------------|
 |---------------------------|---------------------------|
 |---------------------------|---------------------------|
 |---------------------------|---------------------------|
 |-5-------------5---------5-|-3-------------3---------3-|
 |-3-3-3-3-3-3-3-3-3-3-3-3-3-|-1-1-1-1-1-1-1-1-1-1-1-1-1-|
 {eot}
 
 [E5] [C5] [D5] 
 {sot}
 PM--------| PM----| PM--------| PM--------|
 {eot}
 E S S S S S S E S S S S E E S S S S S S E S S S S S S
 
 {sot}
 |---------------------------|------------------------------|
 |---------------------------|------------------------------|
 |---------------------------|------------------------------|
 |---------------------------|-5-------------7--------------|
 |-2-------------2---------2-|-3-3-3-3-3-3-3-5-5-5-5-5-5-5--|
 |-0-0-0-0-0-0-0-0-0-0-0-0-0-|------------------------------|
 {eot}
 
 Outro
 N.C. C5 N.C.
 E S S E S S E S S S S E E S S E S S S S E Q E S S E S S E S S S S E
 
 {sot}
 ||--------------------------|----------------------|--------------------------|
 ||o-------------------------|----------------------|--------------------------|
 ||--------------------------|-------------------5--|--------------------------|
 ||--------------------------|-------------------5--|--------------------------|
 ||o-------------------------|-------------------3--|--------------------------|
 ||--0-0-0-3-0-0-2-0-0-2h3p2-|-0-0-0-3-0-0-2h3p2----|-0-0-0-3-0-0-2-0-0-2h3p2--|
 {eot}
 
 1. 2.
 E S S E S S S S E [C5]Q E S S [G5E5]E E H
 
 {sot}
 |-----------------------||----------------*|
 |----------------------o||----------------*|
 |-------------------5---||----------------*|
 |-------------------5---||----------------*|
 |-------------------3--o||-------5-2------*|
 |-0-0-0-3-0-0-2h3p2-----||-0-0-0-3-0------*|
 {eot}
 
 
 Duration Legend
 
 {sot}
 ---------------
 W - whole; H - half; Q - quarter; E - 8th; S - 16th; T - 32nd; X - 64th; a - acciaccatura
 {eot}
 + - note tied to previous; . - note dotted; .. - note double dotted
 Uncapitalized letters represent notes that are staccato (1/2 duration)
 Irregular groupings are notated above the duration line
 Duration letters will always appear directly above the note/fret number it represents the
 duration for. Duration letters with no fret number below them represent rests. Multi-
 bar rests are notated in the form Wxn, where n is the number of bars to rest for. Low
 melody durations appear below the staff
 
 Tablature Legend
 
 {sot}
 ----------------
 {eot}
 h - hammer-on
 p - pull-off
 b - bend
 pb - pre-bend
 r - bend release (if no number after the r, then release immediately)
 /\ - slide into or out of (from/to "nowhere")
 s - legato slide
 S - shift slide
 - natural harmonic
 [n] - artificial harmonic
 n(n) - tapped harmonic
 ~ - vibrato
 tr - trill
 T - tap
 TP - trem. picking
 PM - palm muting
 \n/ - tremolo bar dip; n = amount to dip
 \n - tremolo bar down
 n/ - tremolo bar up
 /n\ - tremolo bar inverted dip
 = - hold bend; also acts as connecting device for hammers/pulls
 - volume swell (louder/softer)
 x - on rhythm slash represents muted slash
 o - on rhythm slash represents single note slash
 
 Misc Legend
 
 {sot}
 -----------
 {eot}
 | - bar
 || - double bar
 ||o - repeat start
 o|| - repeat end
 *| - double bar (ending)
 : - bar (freetime)
 $ - Segno
 & - Coda
 Tempo markers - = BPM(8/16=s8/s16), where s8 = swing 8ths, s16 = swing 16ths