Song Information for Stuck on You

Song Title:Stuck on You
Artist:Presley, Elvis
Hits:35
{t:Stuck on You}
 {st:Elvis Presley}
 
 Band/Artist: Ekulo
 Song Title: Stuck on you
 
 Cool Hawaiian Reggae Muzic..
 Hello! i'm just new in making tabs so please make some comments for errors..
 I have no time for the fill-ins.. It's unique.. I think its better to have your own
 style for that one.. Hehehe..
 JahBless Everyone...
 
 Standard Tuning:
 
 Intro: G Bm C D7 (2x)
 
 {sot}
 e|---3h5-3-3-----3h5-3----|------3-5-3-----3--|
 B|--------5-----------5-3-|---3-5-----5-3h5---|
 G|------------------------|-------------------|
 D|------------------------|-------------------|
 A|------------------------|-------------------|
 E|------------------------|-------------------|
 e|---3h5-3-3-----3h5-3----|---3-5-7-5-3-5s7-5s3-5p3---|
 b|--------5-----------5-3-|---------------------------|
 G|------------------------|---------------------------|
 D|------------------------|---------------------------|
 A|------------------------|---------------------------|
 E|------------------------|---------------------------|
 {eot}
 
 (1st)Chorus:
 [G]Stuck on [Bm]you
 I've got t[C]his feeling down deep in my [D7]soul that I just can't lose
 [G]Girl I'm [Bm]on my [C]way[D7]
 
 [G]I needed a [Bm]friend
 And the way I feel [C]now I guess [D7]I'll be with you til the e[G]nd
 [G]Girl I'm [Bm]on my [C]way[D7//], Mighty glad you [Gm]sta[Bm]yed[C][D7]
 
 (2nd)Chorus:
 [G]I'm stuck on [Bm]you
 I[C]?ve been a fool too long I [D7]guess it's time for me to come on home
 [G]Girl I'm [Bm]on my [C]way[D7]
 
 [G]So hard to [Bm]see
 That a woman [C]like you could wait around [D7]for a man like [G]me
 G Bm C D7// (lead to chorus G G7)
 Girl I'm on my way Mighty glad you stayed.
 
 Chorus(1st)
 
 Bridge:
 [C]Girl, I'm [D7]leaving on that [G]midnight train tomorrow[G]
 [C]And I know [D7]just where I'm [G]going[G]
 [C]I've packed up my [D7]troubles and I've [Bm]thrown them all [Em]away
 [C]'Cause this time I?m leaving. I'm coming home to [D7]stay
 
 1st verse
 Chorus(1st)