Song Information for L.A.P.D.

Song Title:L.A.P.D.
Artist:Offspring, The
Hits:18
{t:L.A.P.D.}
 {st:The Offspring}
 
 Year: 1992
 Track: 10
 Title: L.A.P.D
 
 INTRO (strum the open E & A strings with palm muting then)
 [B] [C] [A] 
 {sot}
 |--------------------------------------------------------------
 |--------------------------------------------------------------
 |--PICK--------------------------------------------------------
 |----SLIDES-----9-9-9-9-9--10-10-10---7-7----------------------
 |---------------9-9-9-9-9--10-10-10---7-7----------------------
 |---------------7-7-7-7-7--8--8--8----5-5----------------------
 {eot}
 Verse: play intro riff with heavy palm muting (same as almost every Offspring song)
 
 Chorus:
 [F#] [F] [E] [B] [A#] [A][D][B]
 
 {sot}
 |-----------------------------------|--------------------------
 |-----------------------------------|--------------------------
 |------11-11-10-10-9--9-------------|--------7-----------------
 |------11-11-10-10-9--9--9--9--8-8--|---7----7----9------------
 |------9--9--8--8--7--7--9--9--8-8--|---7----5----9------------
 |------------------------7--7--6-6--|---5---------7------------
 {eot}
 
 Lead Break: (this is f***ed, I got kinda lazy, but here it is anyway)
 
 {sot}
 |--------------------------------------------------------------
 |----------13--13---12--12-----------12--12--------------------
 |--12--12--------------------12--12----------12--12---13~~~~--- X 2
 |--------------------------------------------------------------
 |--------------------------------------------------------------
 |--------------------------------------------------------------
 |----------12--12---11--11------------11--11-------------------
 |----------------------------12--12-----------12--12---13~~~~-- 
 {eot}
 then go back to before
 
 {sot}
 |--12--12------------------------------------------------------
 |--------------------------------------------------------------
 |--------------------------------------------------------------
 |--------------------------------------------------------------
 {eot}