Song Information for The Scientist

Song Title:The Scientist
Artist:Nelson, Willie
Hits:23
{t:The Scientist}
 {st:Willie Nelson}
 
 Tuning: Eb,Ab,Db,Gb,Bb,Eb,
 
 E6 A E7Major Bsus4
 
 {sot}
 E|----------------------------|
 B|--5------2-------5------5---|
 G|--4------2-------4------4---|
 D|--2------2-------2------4---|
 A|--4------0-------2------2---|
 E|----------------------------|
 {eot}
 
 (The acoustic parts can seem as if they need more fill, to do so play both the G and D
 strings when playing the picking patterns)
 
 Intro/Verses
 [E6] [A] 
 {sot}
 E|-----------------------------------------------|
 B|--5-----5-----5-----5-------2-----2-----5/7-5--|
 G|-----------------------------------------------|
 D|-----2-----2-----2-----2-------2-----2---------|
 A|--4-------------------------0------------------|
 E|-----------------------------------------------|
 {eot}
 
 E7Major
 
 {sot}
 E|--------------------------------------------------|
 B|--5-----5-----5-----5-----5-----5-----5-----5-----|
 G|--------------------------------------------------|
 D|-----2-----2-----2-----2-----2-----2-----2-----2--|
 A|--2-----------------------------------------------|
 E|--------------------------------------------------|
 {eot}
 
 
 [E6] Come up to [A]meet you, tell you I'm [E7M]sorry
 You don't know how lovely you are
 [E6] I had to [A]find you, Tell you I [E7M]need you
 Tell you I set you apart
 [E6] Tell me your [A]secrets, And ask me your [E7M]questions
 Oh, let's go back to the start
 
 [E6] Running in [A]circles, Coming up [E7M]tails
 Heads on a science apart
 
 (For the strumming parts such as the chorus, just strum the chords and you can add in
 this during the a chord if you want)
 
 (this is where you choose to play it or play
 another 2 "A" chords instead)
 
 [E6] [A] 
 {sot}
 E|-----------------------------------------------|
 B|--5-----5-----5-----5-------2-----2-----5/7-5--|
 G|--4-----4-----4-----4-------2-----2-----2/4-2--|
 D|--2-----2-----2-----2-------2-----2-----2/4-2--|
 A|--4-----4-----4-----4-------0-----0------------|
 E|-----------------------------------------------|
 {eot}
 
 E7Major
 
 {sot}
 E|--------------------------------------------------|
 B|--5-----5-----5-----5-----5-----5-----5-----5-----|
 G|--4-----4-----4-----4-----4-----4-----4-----4-----|
 D|--2-----2-----2-----2-----2-----2-----2-----2-----|
 A|--2-----2-----2-----2-----2-----2-----2-----2-----|
 E|--------------------------------------------------|
 {eot}
 
 [E6] Nobody [A]said it was easy,[E7M] It's such a shame for us to part
 [E6] Nobody [A]said it was easy,[E7M] No one ever said it would be this hard
 
 Oh, take me back to the start
 
 Verses
 [E6] [A] 
 {sot}
 E|-----------------------------------------------|
 B|--5-----5-----5-----5-------2-----2-----5/7-5--|
 G|-----------------------------------------------|
 D|-----2-----2-----2-----2-------2-----2---------|
 A|--4-------------------------0------------------|
 E|-----------------------------------------------|
 {eot}
 
 E7Major
 
 {sot}
 E|--------------------------------------------------|
 B|--5-----5-----5-----5-----5-----5-----5-----5-----|
 G|--------------------------------------------------|
 D|-----2-----2-----2-----2-----2-----2-----2-----2--|
 A|--2-----------------------------------------------|
 E|--------------------------------------------------|
 {eot}
 
 [E6] I was just [A]guessing, At numbers and [E7M]figures
 Pulling the puzzles apart
 [E6] Questions of [A]science, Science and [E7M]progress
 Don't speak as loud as my heart
 [E6] Tell me you [A]love me, Come back and [E7M]haunt me
 Oh, and I rush to the start
 [E6] Running in [A]circles, Chasing [E7M]tails
 Coming back as we are
 
 [E6] Nobody [A]said it was easy,[E7M] Oh It's such a shame for us to part
 [E6] Nobody [A]said it was easy,[E7M] No one ever said it would be this hard
 
 (little ending acoustic part)
 
 {sot}
 E|-----------------------|
 B|-----------------------|
 G|------2--4--2---2--4---|
 D|----2---------4--------|
 A|--2--------------------|
 E|-----------------------|
 {eot}
 
 I'm going back to the start
 
 Ending Rhythm Guitar (you can choose to play it this way the whole song)
 
 [E6] [A] 
 {sot}
 E|-----------------------------------------------|
 B|--5-----5-----5-----5-------2-----2-----5/7-5--|
 G|--4-----4-----4-----4-------2-----2-----2/4-2--|
 D|--2-----2-----2-----2-------2-----2-----2/4-2--|
 A|--4-----4-----4-----4-------0-----0------------|
 E|-----------------------------------------------|
 {eot}
 
 E7Major Bsus2
 
 {sot}
 E|--------------------------------------------------|
 B|--5-----5-----5-----5-----5-----5-----5-----5-----|
 G|--4-----4-----4-----4-----4-----4-----4-----4-----|
 D|--2-----2-----2-----2-----4-----4-----4-----4-----|
 A|--2-----2-----2-----2-----2-----2-----2-----2-----|
 E|--------------------------------------------------|
 {eot}
 
 
 (Extra leads in song)
 INTRO LEAD Guitar
 
 {sot}
 E|--------------------------------|
 B|---5-7b9r7--7b9r7p5---7b9r7--5--|
 G|--------------------------------|
 D|--------------------------------|
 A|--------------------------------|
 E|--------------------------------|
 E|----------------------------------------------------------|
 B|---------------------------9h10p9---5--5------5--9-9------|
 G|-------6--4--4---------------------------4-----------9----|
 D|-/4-7-------------------------------2------2-----------9--|
 A|-------------------------------------------------7--------|
 E|----------------------------------------------------------|
 {eot}
 
 Lead verses
 
 {sot}
 E|----------------------------------------|
 B|---7b9r7--5---------5--7----------7--5--|
 G|----------------------------------------|
 D|----------------------------------------|
 A|----------------------------------------|
 E|----------------------------------------|
 {eot}
 
 
 violin solo
 
 {sot}
 E|-----------------------------------------------------------|
 B|--/12--12--10-9-10--9--10--14--12--------------------------|
 G|-------------------------------------13/11--13/11--11br--9-|
 D|-----------------------------------------------------------|
 A|-----------------------------------------------------------|
 E|-----------------------------------------------------------|
 E|-------------------------------------------------------|
 B|-------------------------------------------------------|
 G|--/13--11--9--------12br--12br---9----12br---12br---9--|
 D|--------------9----------------------------------------|
 A|-------------------------------------------------------|
 E|-------------------------------------------------------|
 {eot}
 
 Lead Guitar acoustic out
 
 
 {sot}
 E|--12-12-12-12---------------------------------|
 B|---------------14--14-14-14---12-12-12-12-12--|
 G|----------------------------------------------|
 D|----------------------------------------------|
 A|----------------------------------------------|
 E|----------------------------------------------|
 {eot}
 
 Lead Electric out
 
 
 {sot}
 E|--9-9-9-9-9-9-9--12--7-7-7-7-7-7-7--11--|
 B|----------------------------------------|
 G|----------------------------------------|
 D|----------------------------------------|
 A|----------------------------------------|
 E|----------------------------------------|
 {eot}