Song Information for Just Breathe

Song Title:Just Breathe
Artist:Nelson, Willie
Hits:16
{t:Just Breathe}
 {st:Willie Nelson}
 
 [Verse 1]
 
 
 {sot}
 e|------------------------------------------------------------------------------------------|
 B|-------1--------------------1-------------------------------------------------------------|
 G|-------0-------0----0-------0------0-----0---------0-------------------0------------------|
 D|-------2---0h2---0h2--------2---0h2---0h2----------0-------0----0------0--------0-------0-|
 A|---3---3----------------3---3----------------------2---0h2----0h2------2---0h2----0h2-----|
 E|------------------------------------------------3--3----------------3--3------------------|
 {eot}
 
 For the verse you can play a standard G and also strum this cool chord pattern.
 
 
 {sot}
 e|------------------------------------------------|
 B|------------------------------------------------|
 G|--0-----0-----0-----0---------------------------|
 D|--0-----2-----3-----2---------------------------|
 A|--2-----0-----0-----0---------------------------|
 E|--3-----3-----3-----3---------------------------|
 {eot}
 
 [C]Yes I understand, that every life must end, uh-[G]huh
 [C]As we sit alone, I know someday we must go, uh-[G]huh
 
 Oh [C]I'm a lucky man to count on both hands the ones I [G]love (Lukas Nelson)
 [C]Some folks just have one, yeah, others, they've got none, at [G]all
 
 [Am]Stay with me'[F]
 
 Let's just breathe
 
 [Verse 2]
 
 [C]Practiced on my sins, never gonna let you win, uh-[G]huh
 [C]Under everything, just another human being, uh-[G]huh
 
 [C]I don't want to hurt
 There's so much in this world to make me be[G]lieve
 
 [Am]Stay with me[F]
 
 your all I see
 
 [Chorus]
 
 [G]Did I say that I [Dm]need you?
 [G]Did I say that I [Dm]want you?
 [F]Oh, if I didn't I'm a [Am]fool you see
 [F]No one knows this [C]more than [G]me
 But [G]I come clean
 
 [Verse 3]
 
 I [C]wonder everyday, as I look upon your face, uh-[G]huh
 [C]Everything you gave and nothing you would take, uh-[G]huh (Lukas Nelson)
 [Am]Nothing you would take, [F]everything you gave
 
 [Chorus]
 
 [G]Did I say that I [Dm7]need you? Oh oh
 [G]Did I say that I [Dm7]want you?
 [G]Oh, if I didn't I'm a [Am]fool you see
 [F]No one knows this [C]more than [G]me
 But [G]I come clean
 
 [Solo]
 
 
 {sot}
 e|---------------------------------------------------------------------------------------|
 B|---------------------------8-----------------------------------------------------------|
 G|-7b9------7b9r7-5--7b9------7b9--7b9r7-5\4-----5--5-4----------------------------------|
 D|------------------------------------------------------7-5------------------------------|
 A|---------------------------------------------------------------------------------------|
 E|---------------------------------------------------------------------------------------|
 e|-------------------------8-10-10b12-----10b12r10-8-7----8p7s5-----5h7p5----------------|
 B|---------------------/10-------------------------------------------------8--6--8b10rb8-|
 G|----4-5-7-7b9-7b9----------------------------------------------------------------------|
 D|5-7------------------------------------------------------------------------------------|
 A|---------------------------------------------------------------------------------------|
 E|---------------------------------------------------------------------------------------|
 {eot}
 
 [Outro]
 
 [Am]Nothing you would [G]take, [Am]everything you [G]gave[F]
 [Am]Love you till I [G]die, [Am]meet you on the other [G]side[F] [C]