Song Information for Hands on the Wheel

Song Title:Hands on the Wheel
Artist:Nelson, Willie
Hits:115
{t:Hands on the Wheel}
 {st:Willie Nelson}
 
 Willie Nelson - Hands on the Wheel
 
 Intro A E A E
 
 A A run 1 D
 At a time when the world seems to be spinnin'
 [A]Hopelessly out o[E]f control[A]
 run 2 A A run 1 D
 There's deceivers and believers and old in-betweeners
 A E A run 3
 That seem to have no place to go
 
 E E D run 4 A
 Well it's the same old song, it's right and it's wrong
 F#m F E run 2
 And livin' is just something that I do
 A A run 4 D
 And with no place to hide, I looked in your eyes
 A E A run 3
 And I found myself in you
 
 E E D run 4 A
 I looked to the stars, tried all of the bars
 F#m F E run 2
 And I've nearly gone up in smoke
 A A run 1 D
 Now my hand's on the wheel of somethin' that's real
 And I f[A]eel like I'm [E]goin' home[A][(D)][A]
 
 run 2 A A run 1 D
 And in the shade of an oak, down by the river
 A A run 3 E
 Sat an old man and a boy
 run 2 A A run 1 D
 Settin' sails, spinnin tales, and fishin' for whales
 A E A run 3
 With a lady that they both enjoy
 
 E E D run 4 A
 Well it's the same damn tune, it's the man and the moon
 It's th[F#m]e way that I fe[F]el about[E] you
 run 2 A A run 1 D
 And with no place to hide, I looked in your eyes
 A E A run 3
 And I found myself in you
 
 E E D run 4 A
 I looked to the stars, tried all of the bars
 And I'[F#m]ve nearly gone[F] up in smoke [E]
 run 2 A A run 1 D
 Now my hand's on the wheel of somethin' that's real
 And I f[A]eel like I'm g[E]oin' home[A][(D)][A]
 
 Run 1
 
 
 {sot}
 e|-----------------|
 B|-----------------|
 G|-----------------|
 D|-----------------|
 A|----0--2--4------|
 E|-----------------|
 {eot}
 
 Run 2
 
 
 {sot}
 e|-----------------|
 B|-----------------|
 G|-----------------|
 D|-----------------|
 A|-----------------|
 E|-----0--2--4-----|
 {eot}
 
 Run 3
 
 
 {sot}
 e|-----------------|
 B|-----------------|
 G|-----------------|
 D|-----------------|
 A|---0-------------|
 E|-------4---2-----|
 {eot}
 
 Run 4
 
 
 {sot}
 e|-----------------|
 B|-----------------|
 G|-----------------|
 D|---0-------------|
 A|------4---2------|
 E|-----------------|
 {eot}