Song Information for Blue Eyes Crying in the Rain

Song Title:Blue Eyes Crying in the Rain
Artist:Nelson, Willie
Hits:74
{t:Blue Eyes Crying in the Rain}
 {st:Willie Nelson}
 
 This is the 100% right tab!
 
 [(E)] [(A)] 
 {sot}
 -------0-------0---------0-------0---------0-------0---------0---------|
 -------0-------0---------0-------0---------0-------0---------0-------2-|
 -------1-------1---------1-------1---------1-------1---------1-------2-|
 -------2-------2---------2-------2---------2-------2---------2-------2-|
 -0h2---------------0h2---------------0h2---------------0h2-------------|
 -----------0-----------------0-----------------0-----------------0-----|
 {eot}
 
 [(E)] [(B7)] 
 {sot}
 ------0-------0-------0---------------2-------2-------2-------2-|
 ------0-------0-------0---------------0-------0-------0-------0-|
 ------1-------1-------1---------------2-------2-------2-------2-|
 ------2-------2-------2---------------1-------1-------1-------1-|
 ----------2---------------0---1---2---------------2-------------|
 --0---------------0-----------------------2---------------2-----|
 {eot}
 
 [(E)] [(A)] 
 {sot}
 ------0-------0-------0-------0-------0-------0-------0---------|
 ------0-------0-------0-------0-------0-------0-------0-------2-|
 ------1-------1-------1-------1-------1-------1-------1-------2-|
 ------2-------2-------2-------2-------2-------2-------2-------2-|
 ----------2---------------2---------------2---------------2-----|
 --0---------------0---------------0---------------0-------------|
 {eot}
 
 [(E)] [(B7)] 
 {sot}
 ------0-------0-------0---------------2-------2-------2-------2-|
 ------0-------0-------0---------------0-------0-------0-------0-|
 ------1-------1-------1---------------2-------2-------2-------2-|
 ------2-------2-------2---------------1-------1-------1-------1-|
 ----------2---------------0---1---2---------------2-------------|
 --0---------------0-----------------------2---------------2-----|
 {eot}
 
 [(E)] [(A)] 
 {sot}
 ------0-------0-----------------------0-------0-------0-------0-------0-------0-|
 ------0-------0-----------------------2-------2-------2-------2-------2-------2-|
 ------1-------1-----------------------2-------2-------2-------2-------2-------2-|
 ------2-------2-----------------------2-------2-------2-------2-------2-------2-|
 ----------2-----------------------0---------------0---------------0-------------|
 --0---------------0---1---2---4-----------0---------------0---------------0-----|
 {eot}
 
 [(E)] [(B7)] 
 {sot}
 -----------------0-------0-------0-------0---------2-------2-----------------------|
 -----------------0-------0-------0-------0------1--0-------0-----------------------|
 -----------------1-------1-------1-------1---------2-------2-----------------------|
 -----------------2-------2-------2-------2---------1-------1-----------------------|
 -0-------------------2-----------------------2-----------------0h2---2---0---------|
 -----4---2---0---------------0-------0-----------------2---------------------4---2-|
 -----------------------------------------------------------------------------------
 {eot}
 
 Lead
 
 
 {sot}
 -----------------------------------------------|
 -----------------------------------------------|
 ----9--11--11/13---13^--13------9---13^--13--9-|
 -9---------------------------9-----------------|
 -----------------------------------------------|
 -----------------------------------------------|
 -------------------------------------------------------------------|
 ----12-----11--10----9---------10--12------12----12----------------|Fades-out...
 -13-----12-----11------11---------------13----13-------------------|
 ----------------------------9--------------------------------------|
 -------------------------------------------------------------------|
 -------------------------------------------------------------------|
 -----------------------------------------------------------------------|
 -----------------------------------------------------------------------|
 -----------9---11--9--11/13--13--13--13^--13-----9--11--13--13^--13--9-|
 -9p7h9--9-------------------------------------9------------------------|
 -----------------------------------------------------------------------|
 -----------------------------------------------------------------------|
 ------------------------------------------------------------------|
 ------------------------9------9----------------------------------|
 -----------9---11^-11------11----11-----11^---9--9----------------|
 -9p7h9--9----------------------------9----------------------------|
 ------------------------------------------------------------------|
 ------------------------------------------------------------------|
 {eot}