Song Information for Pretend I Never Happened

Song Title:Pretend I Never Happened
Artist:Nelson, Willie
Hits:74
{t:Pretend I Never Happened}
 {st:Willie Nelson}
 
 
 {sot}
 -------------------------------------------------------------------------------
 {eot}
 PRETEND I NEVER HAPPENED - Willie Nelson
 
 {sot}
 -------------------------------------------------------------------------------
 {eot}
 Tabbed by: Nick Celender
 Email: nick.celender@gmail.com
 Date: 2/5/09
 Tuning: Standard
 
 / - slide up
 \ - slide down
 
 Verse Chords: D, A, E, A
 
 Verse 1:
 
 Pretend I never happened[D][D][Dsus4][D]
 
 [D]Erase me from your [A]mind
 
 [A]You will not want to rem[E]ember
 
 [E]Any love as cold as [A]mine
 
 I'll be leaving in the morn[D]ing[D][Dsus4][D]
 
 [D]For a place that I hope I'll [A]find
 
 [A]All the places must be bet[E]ter
 
 [E]Than the ones I leave behi[A]nd
 
 Well I don't suppose you'll be un[D]happy
 
 [D]You'll find ways to spend your t[A]ime
 
 [A]And if you ever think about [E]me
 
 [E]And if I ever cross your mi[A]nd
 
 Just pretend I never happ[D]ene[D]d[Dsus4][D]
 
 [D]Erase me from your mi[A]nd
 
 [A]You will not want to rem[E]ember
 
 [E]Any love as cold as m[A]ine
 
 (1:25) D D D D4 D D A
 
 {sot}
 e|--------------------------------------------------------------------0------|
 B|-10-10-10-9-9-9-8-8-8--88-7-7--7-8-7----10r7---10-7-----7--5---5/7--0------|
 G|---------------------------------------------9------7h9--------------------|
 D|---------------------------------------------------------------------------|
 A|---------------------------------------------------------------------------|
 E|---------------------------------------------------------------------------|
 {eot}
 
 (~1:36) A E A
 
 {sot}
 e|-0-------------------------------------------------------------------------|
 B|----6---6h7r6--4-6--4h6r4-----4---------------------------6----------------|
 G|---------------------------6--------------------------5h7---7-5-----5------|
 D|--------------------------------------------------6h7-----------7-5--------|
 A|-----------------------------------2h4r2-0---------------------------------|
 E|-------------------------------------------2b-0------------------------5---|
 {eot}
 
 Well I dont suppose you'll be unh[D]appy
 
 [D]You'll find ways to spend your ti[A]me
 
 [A]And if you're ever thinking abo[E]ut me
 
 [E]And if I ever cross your m[A]ind
 
 Just pretend I never happe[D]ned[D][Dsus4][D]
 
 [D]Erase me from your m[A]ind
 
 [A]You will not want to re[E]member
 
 [E]Any love as cold as mi[A]ne
 
 You will not want to reme[E]mber
 
 Any love as cold as m[A]ine
 
 ===============================================================================