Song Information for Ruled by Secrecy

Song Title:Ruled by Secrecy
Artist:Muse
Hits:28
{t:Ruled by Secrecy}
 {st:Muse}
 
 RULED BY SECRECY - MUSE
 
 This is a way of playing this song using easy open but accurate chords.
 Its up to you whether you want to strum, flatpick / alternate pick whatever.
 You will need a capo at fret 1, an open Em shape gives you the opening chord
 of F minor , so the chords below are the actual chord names not shape names,
 remember your capo is on fret 1, which now plays open strings, and that now
 an indicated "2" is actually fret 3 and "4" is fret 5 etc.
 
 CAPO FRET 1. CHORDS USED ( IN ORDER OF APPEARANCE ) CAPO FRET 1.
 
 [Fm] [C7] [D#6] [C] [C#] 
 {sot}
 --0--------- ----2------- ----2------- --2--------- -0----------|
 --0--------- --0--------- ----0------- ------4----- -1----------|
 --0--------- ----2------- ----2------- ------4----- -0----------|
 --2--------- --1--------- ----0------- ------4----- ---2--------|
 --2--------- ------------ ------------ --2--------- -----3------|
 --0--------- ------------ ------------ ------------ ------------|
 {eot}
 
 [A#] [D#] [D#7] [G#] [D7] 
 {sot}
 ------------ ----2------- ----2------- -----3------- -----------|
 ---2-------- ------3----- --1--------- -----0------- ----2------|
 ---2-------- ----2------- ----2------- -----0------- --------4--|
 ---2-------- ----0------- ----0------- -----0------- ------3----|
 -------4---- ------------ ------------ ---2--------- --------4--|
 ------------ ------------ ------------ -----3------- -----------|
 {eot}
 
 VERSE 1
 
 [Fm] Repress and[C7] restrain,
 
 [D#6] steal the pressure and the pai[C]n,
 
 [Fm] wash the blood[C7] off your hands,
 
 this time sh[D#6]e wont understan[C]d,
 
 CHORUS
 
 [C#]Change in th[A#]e air, they'll [D#]hide[D#7] ever[C7]ywhere,
 
 no-[Fm]one, [C7] knows,[D#7] who's i[G]n control,[D7][Fm]
 
 VERSE 2
 
 [Fm] You're working s[C7]o hard,
 
 [D#6] and you're never in char[C]ge,
 
 [Fm] your death create[C7]s success,
 
 [D#6] rebuild and [C]suppress,
 
 CHORUS
 
 [C#]Change in th[A#]e air, and they'll [D#]hide[D#7] every[C7]where,
 
 and no [Fm]one [C7]knows[D#7] who's i[G#]n control,[D7]
 
 PIANO SOLO CHORDS
 
 [Fm/] [/] [/] [/] [C7] [/] [/] [/] [/] [D#] [/] [/] [/] [/] [C] [/] [/][/][/]
 [Fm/] [/] [/] [/] [C7] [/] [/] [/] [/] [D#] [/] [/] [/] [/] [C] [/] [/][/][/]
 FINAL CHORUS
 
 [C#]Change in th[A#]e air, and they'll [D#]hid[D#7]e every[C7]where,
 
 no-[Fm]one [C7] knows, [D#7] who's i[G#]n control,[D7][Fm]
 
 You dont have to play the tab outro, an Fm chord sounds fine playing along.
 
 OUTRO TAB (capo 1st fret tab nos. on THE ACTUAL FRET NUMBERS THIS TIME )
 
 REPEAT FIRST LINE OF TAB
 
 {sot}
 E--------------------------------------------------|
 B-0-----0-----0-----0-----0-----0-----0-----0------|
 G--0---0-0---0-0---0-0---0-0---0-0---0-0---0-0---0-|
 D---5-5---5-5---5-5---5-5---5-5---5-5---5-5---5-5--|
 A----8-----8-----7-----7-----6-----6-----5-----5---|
 E--------------------------------------------------|
 {eot}
 
 THEN
 
 {sot}
 E--------------------|
 B-0-----0-----0-----0|
 G--0---0-0---0-0---0-|
 D---5-5---5-5---5-5--|
 A----4-----4-----4---|
 E--------------------| END.
 {eot}