Song Information for Blackout

Song Title:Blackout
Artist:Muse
Hits:28
{t:Blackout}
 {st:Muse}
 
 Blackout-Muse | Tabbed by Spannious
 
 You need to play each note fast and several times with a pick or else its pretty hard to
 the song. I use the flat side of the pick because its easier and the pick wont get
 between the strings.
 
 Intro
 
 
 {sot}
 e|----------------------------|
 B|----------------------------|
 G|--3/7-2/7---8--2/6----------|
 D|----------5-----------------|
 A|----------------------------|
 E|----------------------------|
 {eot}
 
 Verse
 Chords: Bb, Dm/A, Eb/G, Faug (strange chords, I know)
 
 [Bb] [Dm/A] 
 {sot}
 e|----------1-----------------| e|-----------1---------------|
 B|----------3-----------------| B|-----------3---------------|
 G|----------3-----------------| G|-----------2---------------|
 D|----------3-----------------| D|-----------3---------------|
 A|----------1-----------------| A|---------------------------|
 E|----------------------------| E|---------------------------|
 {eot}
 
 Eb/G Faug
 
 {sot}
 e|----------3-----------------| e|-----------1---------------|
 B|----------4-----------------| B|-----------2---------------|
 G|----------3-----------------| G|-----------2---------------|
 D|----------5-----------------| D|-----------3---------------|
 A|----------6-----------------| A|---------------------------|
 E|----------3-----------------| E|-----------1---------------|
 {eot}
 
 Then the "solo" part comes.
 Its just like the beginning use a pick and play fast.
 
 
 {sot}
 e|----------------------------|
 B|----------------------------|
 G|-3/7-2/7---8-2/6------------| X2
 D|---------5------------------|
 A|----------------------------|
 E|----------------------------|
 e|------------------------------------------------------------|
 B|--8-10-11-13-15----16-18-19-20-22-23---22-20-19-16-15b------|
 G|------------------------------------------------------------|
 D|------------------------------------------------------------|
 A|------------------------------------------------------------|
 E|------------------------------------------------------------|
 {eot}
 
 Verse
 
 Follow the pattern above and youll figure out the rest of the song...