Song Information for Falling Away With You

Song Title:Falling Away With You
Artist:Muse
Hits:29
{t:Falling Away With You}
 {st:Muse}
 
 band: Muse
 album: Absolution
 song: Falling away with you
 
 This tab contains the quite corect tab and lyrics of this absolutely
 briliant song by muse. i've the right rythem shown by -1- (what means 1 sec)
 and the letters d and u (what actualy means downstroke an upstroke).i haven't
 give the CHORUS a rythem you have to figure that out your self, but it quite
 slow for sure. I hope you have lots of fun with playing this song.
 
 INTRO
 
 {sot}
 -1- -2- 3 4 5 6 -1- -2- 3 4 5 6 -1- 2 3 4 -5-
 {eot}
 [d] [u] [d] [u] [d] [d] [d] [d] [d] [u] [d] [u] [d] [d] [d] [d] [d] [u] [d] [d] [d] [d] [u] 
 {sot}
 e|-----3-8-8-7-7-5---5-3--------------------------------------------------|
 B|-5-6-------------------6-5-5-5-3-1---5-3-1-1-1-3-5----------------------|
 G|------------------------------------------------------------------------|
 D|------------------------------------------------------------------------|
 A|------------------------------------------------------------------------|
 E|------------------------------------------------------------------------|
 {eot}
 
 VERSE 1 (every part is one line)
 
 
 {sot}
 e|-----3-8-8-7-7-5-----5-3------------------------------------------------|
 B|-5-6---------------------6-5-5-5-3-1-----5-3-1-1-1-3-5------------------|
 G|------------------------------------------------------------------------|
 D|------------------------------------------------------------------------|
 A|------------------------------------------------------------------------|
 E|------------------------------------------------------------------------|
 {eot}
 i cant remember.....
 
 
 {sot}
 e|-----3-8-8-7-7-5-----5-3------------------------------------------------|
 B|-5-6---------------------6-5-5-5-3-1-----5-3-1-1-1-3-5------------------|
 G|------------------------------------------------------------------------|
 D|------------------------------------------------------------------------|
 A|------------------------------------------------------------------------|
 E|------------------------------------------------------------------------|
 {eot}
 all of the......
 
 
 {sot}
 e|-----3-8-8-7-7-5-----5-3-------------------------------------------------|
 B|-5-6---------------------6-5-5-5-3-1-----5-3-1-1-1-3-5-----5-3-1-1-1-3-1-|
 G|-------------------------------------------------------------------------|
 D|-------------------------------------------------------------------------|
 A|-------------------------------------------------------------------------|
 E|-------------------------------------------------------------------------|
 {eot}
 so i'll love.....
 
 CHORUS (with chords as replacement for the distorted guitar)
 
 and [A]i'll feel my [Dm]world crumbling
 i[A]'ll feel my l[Dm]ife crumbling
 i[A]'ll feel my s[Dm]oul crumbling aw[A]ay
 and [Am]falling away
 [F]falling aw[G]ay with[C] you
 
 VERSE 2 (every part is one line)
 
 
 {sot}
 e|-----3-8-8-7-7-5-----5-3------------------------------------------------|
 B|-5-6---------------------6-5-5-5-3-1-----5-3-1-1-1-3-5------------------|
 G|------------------------------------------------------------------------|
 D|------------------------------------------------------------------------|
 A|------------------------------------------------------------------------|
 E|------------------------------------------------------------------------|
 {eot}
 staying awake to....
 
 
 {sot}
 e|-----3-8-8-7-7-5-----5-3------------------------------------------------|
 B|-5-6---------------------6-5-5-5-3-1-----5-3-1-1-1-3-5------------------|
 G|------------------------------------------------------------------------|
 D|------------------------------------------------------------------------|
 A|------------------------------------------------------------------------|
 E|------------------------------------------------------------------------|
 {eot}
 promise to hold......
 
 
 {sot}
 e|-----3-8-8-7-7-5-----5-3-------------------------------------------------|
 B|-5-6---------------------6-5-5-5-3-1-----5-3-1-1-1-3-5-----5-3-1-1-1-3-1-|
 G|-------------------------------------------------------------------------|
 D|-------------------------------------------------------------------------|
 A|-------------------------------------------------------------------------|
 E|-------------------------------------------------------------------------|
 {eot}
 all of the love.......
 
 CHORUS
 
 and [A]i'll feel my [Dm]world crumbling
 i[A]'ll feel my l[Dm]ife crumbling
 i[A]'ll feel my s[Dm]oul crumbling aw[A]ay
 and [Am]falling away
 [F]falling aw[G]ay with[C] you
 
 Verse 3 (every part is one line)
 
 
 {sot}
 e|-----3-8-8-7-7-5-----5-3-------------------------------------------------|
 B|-5-6---------------------6-5-5-5-3-1-----5-3-1-1-1-3-5-----5-3-1-1-1-3-1-|
 G|-------------------------------------------------------------------------|
 D|-------------------------------------------------------------------------|
 A|-------------------------------------------------------------------------|
 E|-------------------------------------------------------------------------|
 {eot}
 all of the love.....
 
 LYRICS:
 
 Verse 1:
 
 i can't remember when it was good
 moments of happiness elude
 maybe i just misunderstood
 
 all of the love we left behind
 watching the flash backs intertwine
 memories i will never find
 
 so i`ll love whatever you become
 and forget the reckless things we've done
 i think our lives have just begun
 i think our lives have just begun
 
 Chorus:
 
 and i'll feel my world crumbling
 i'll feel my life crumbling
 i'll feel my soul crumbling away
 and falling away
 falling away with you
 
 Verse 2:
 
 staying awake to chase a dream
 tasting the air you're breathing in
 i know i won't forget a thing
 
 promise to hold you close and pray
 watching the fantasies decay
 nothing will ever stay the same
 
 all of the love we threw away
 all of the hopes we cherished fade
 making the same mistakes again
 making the same mistakes again
 
 Chorus:
 
 and i'll feel my world crumbling
 i'll feel my life crumbling
 i'll feel my soul crumbling away
 and falling away
 falling away with you
 
 verse 3:
 
 all of the love we've left behind
 watching the flash backs intertwine
 memories i will never find
 memories i will never find
 
 thanks to mikus for givin me a good set up.
 please notice me if you catch an error. or if you just wanna congatulate me
 with perfectly figuring out this song ;). klaas-thijs aka kt_guitarist