Song Information for Apocalypse Please

Song Title:Apocalypse Please
Artist:Muse
Hits:6
{t:Apocalypse Please}
 {st:Muse}
 
 
 {sot}
 -------------------------------------------------------------------------------
 {eot}
 Apocalypse Please - Muse
 
 {sot}
 -------------------------------------------------------------------------------
 {eot}
 Tabbed by: Mucki
 Tuning: standard - EADGBe
 
 Piano Part of the great song Apocalypse Pleas by Muse tabbed for guitar.
 
 Intro
 [F#m/C#] [C#]
 [1] [+] [2] [+] [3] [+] [4] [+] [1] [+] [2] [+] [3] [+] [4] [+] 
 {sot}
 e|----------------------------------|----------------------------------|
 B|--10------10------10------10------|----------------------------------|
 G|--11------11------11------11------|--10------10------10------10------|
 D|--11------11------11------11------|--11------11------11------11------|
 A|----------------------------------|--11------11------11------11------|
 E|--9---9-------9-------9-------9---|--9---9-------9-------9-------9---|
 {eot}
 
 Verse Part 1
 [F#m/C#] [C#]
 [1] [+] [2] [+] [3] [+] [4] [+] [1] [+] [2] [+] [3] [+] [4] [+] 
 {sot}
 e|----------------------------------|----------------------------------|
 B|--10------10------10------10------|----------------------------------|
 G|--11------11------11------11------|--10------10------10------10------|
 D|--11------11------11------11------|--11------11------11------11------|
 A|----------------------------------|--11------11------11------11------|
 E|--9---9-------9-------9-------9---|--9---9-------9-------9-------9---|
 {eot}
 
 Verse Part 2
 [F#m] [C#]
 [1] [+] [2] [+] [3] [+] [4] [+] [1] [+] [2] [+] [3] [+] [4] [+] 
 {sot}
 e|----------------------------------|----------------------------------|
 B|--10------10------10------10------|----------------------------------|
 G|--11------11------11------11------|--10------10------10------10------|
 D|--11------11------11------11------|--11------11------11------11------|
 A|--9---9-------9-------9-------9---|--11------11------11------11------|
 E|----------------------------------|--9---9-------9-------9-------9---|
 {eot}
 
 Verse Part 3
 
 (If the sixteenth notes are too fast, just play eigth notes instead)
 
 [F#m] [D/F#]
 [1] [+] [2] [+] [3] [+] [4] [+] [1] [+] [2] [+] [3] [+] [4] [+] 
 {sot}
 e|----------------------------------|----------------------------------|
 B|--10------10------10------10------|--10------10------10------10------|
 G|--11------11------11------11------|--11------11------11------11------|
 D|--11------11------11------11------|--12------12------12------12------|
 A|--9-9-9-9-9-9-9-9-9-9-9-9-9-9-9-9-|--9-9-9-9-9-9-9-9-9-9-9-9-9-9-9-9-|
 E|----------------------------------|----------------------------------|
 {eot}
 
 E/G# Eaug/G#
 [1] [+] [2] [+] [3] [+] [4] [+] 
 {sot}
 e|--------------------------------------------------|
 B|--9-----------9-----------9-----------9-----------|
 G|--9-----------9-----------9-----------9-----------|
 D|--9-----------9-----------10----------10----------|
 A|--11-11-11-11-11-11-11-11-11-11-11-11-11-11-11-11-|
 E|--------------------------------------------------|
 {eot}
 
 [A] 
 [1] [+] [2] [+] [3] [+] [4] [+] 
 {sot}
 e|--------------------------------------------------|
 B|--10----------10----------10----------10----------|
 G|--9-----------9-----------9-----------9-----------|
 D|--11----------11----------11----------11----------|
 A|--12-12-12-12-12-12-12-12-12-12-12-12-12-12-12-12-|
 E|--------------------------------------------------|
 {eot}
 
 [C#] 
 [1] [+] [2] [+] [3] [+] [4] [+] 
 {sot}
 e|-------------------------------------------------|
 B|-------------------------------------------------|
 G|-----10-------10-10----------10-------10-10------|
 D|-----11-------11-11----------11-------11-11------|
 A|-----11-------11-11----------11-------11-11------|
 E|--9--9--9--9--9--9--9--9--9--9--9--9--9--9--9--9-|
 {eot}
 
 [A] 
 [1] [+] [2] [+] [3] [+] [4] [+] 
 {sot}
 e|-------------------------------------------------|
 B|-------------------------------------------------|
 G|-----6--------6--6-----------6--------6--6-------|
 D|-----7--------7--7-----------7--------7--7-------|
 A|-----7--------7--7-----------7--------7--7-------|
 E|--5--5--5--5--5--5--5--5--5--5--5--5--5--5--5--5-|
 {eot}
 
 [C#] 
 [1] [+] [2] [+] [3] [+] [4] [+] 
 {sot}
 e|-------------------------------------------------|
 B|-------------------------------------------------|
 G|-----10-------10-10----------10-------10-10------|
 D|-----11-------11-11----------11-------11-11------|
 A|-----11-------11-11----------11-------11-11------|
 E|--9--9--9--9--9--9--9--9--9--9--9--9--9--9--9--9-|
 {eot}
 
 [C#] 
 [1] [+] [2] [+] [3] [+] [4] [+] 
 {sot}
 e|-------------------------------------------------|
 B|-------------------------------------------------|
 G|-----10-------10-10----------10-------10---------|
 D|-----11-------11-11----------11-------11---------|
 A|-----11-------11-11----------11-------11---------|
 E|--9--9--9--9--9--9--9--9--9--9--9--9--9----------|
 {eot}
 
 Bridge (Synth Part)
 
 This Part is a little bit tricky. The first 3 notes of one arpeggio (consisting
 of 7 notes) are 3 sixteenth triplets. The next 4 are 4 thirty-second notes.
 Just try to keep the first and the last note of an arpeggio in time.
 
 The ","-Signs shall show the sixteenth beats.
 
 [C#sus4] 1 , + , 2 , + , 3 , + , 4 , + ,
 
 {sot}
 e|-----------------9-----------------9-----------------9-----------------9-|
 B|-------------7-9---------------7-9---------------7-9---------------7-9---|
 G|-----------6-----------------6-----------------6-----------------6-------|
 D|-------6-----------------6-----------------6-----------------6-----------|
 A|----9-----------------9-----------------9-----------------9--------------|
 E|-9-----------------9-----------------9-----------------9-----------------|
 {eot}
 
 [C#] 1 , + , 2 , + , 3 , + , 4 , + ,
 
 {sot}
 e|-----------------9-----------------9-----------------9-----------------9-|
 B|-------------6-9---------------6-9---------------6-9---------------6-9---|
 G|-----------6-----------------6-----------------6-----------------6-------|
 D|-------6-----------------6-----------------6-----------------6-----------|
 A|----8-----------------8-----------------8-----------------8--------------|
 E|-9-----------------9-----------------9-----------------9-----------------|
 {eot}
 
 [F#m] 1 , + , 2 , + , 3 , + , 4 , + ,
 
 {sot}
 e|---------------5-9---------------5-9---------------5-9---------------5-9-|
 B|-------------7-----------------7-----------------7-----------------7-----|
 G|-----------6-----------------6-----------------6-----------------6-------|
 D|-------7-----------------7-----------------7-----------------7-----------|
 A|----9-----------------9-----------------9-----------------9--------------|
 E|-9-----------------9-----------------9-----------------9-----------------|
 {eot}
 
 [Dmaj7] 1 , + , 2 , + , 3 , + , 4 , + ,
 
 {sot}
 e|-----------------9-----------------9-----------------9-----------------9-|
 B|-------------7-10--------------7-10--------------7-10--------------7-10--|
 G|-----------7-----------------7-----------------7-----------------7-------|
 D|-------7-----------------7-----------------7-----------------7-----------|
 A|----9-----------------9-----------------9-----------------9--------------|
 E|-10----------------10----------------10----------------10----------------|
 {eot}
 
 [C#sus4] 1 , + , 2 , + , 3 , + , 4 , + ,
 
 {sot}
 e|-----------------9-----------------9-----------------9-----------------9-|
 B|-------------7-9---------------7-9---------------7-9---------------7-9---|
 G|-----------6-----------------6-----------------6-----------------6-------|
 D|-------6-----------------6-----------------6-----------------6-----------|
 A|----9-----------------9-----------------9-----------------9--------------|
 E|-9-----------------9-----------------9-----------------9-----------------|
 {eot}
 
 [C#] 1 , + , 2 , + , 3 , + , 4 , + ,
 
 {sot}
 e|-----------------9-----------------9-----------------9-----------------9-|
 B|-------------6-9---------------6-9---------------6-9---------------6-9---|
 G|-----------6-----------------6-----------------6-----------------6-------|
 D|-------6-----------------6-----------------6-----------------6-----------|
 A|----8-----------------8-----------------8-----------------8--------------|
 E|-9-----------------9-----------------9-----------------9-----------------|
 {eot}
 
 [F#m] 1 , + , 2 , + , 3 , + , 4 , + ,
 
 {sot}
 e|---------------5-9---------------5-9---------------5-9---------------5-9-|
 B|-------------7-----------------7-----------------7-----------------7-----|
 G|-----------6-----------------6-----------------6-----------------6-------|
 D|-------7-----------------7-----------------7-----------------7-----------|
 A|----9-----------------9-----------------9-----------------9--------------|
 E|-9-----------------9-----------------9-----------------9-----------------|
 {eot}
 
 [Dmaj7] 1 , + , 2 , + , 3 , + , 4 , + ,
 
 {sot}
 e|-----------------9-----------------9-----------------9-----------------9-|
 B|-------------7-10--------------7-10--------------7-10--------------7-10--|
 G|-----------7-----------------7-----------------7-----------------7-------|
 D|-------7-----------------7-----------------7-----------------7-----------|
 A|----9-----------------9-----------------9-----------------9--------------|
 E|-10----------------10----------------10----------------10----------------|
 {eot}
 
 [Bm] 1 , + , 2 , + , 3 , + , 4 , + ,
 
 {sot}
 e|---------------7-10--------------7-10--------------7-10--------------7-10-|
 B|-------------7-----------------7-----------------7-----------------7------|
 G|-----------7-----------------7-----------------7-----------------7--------|
 D|-------9-----------------9-----------------9-----------------9------------|
 A|----9-----------------9-----------------9-----------------9---------------|
 E|-10----------------10----------------10----------------10-----------------|
 {eot}
 
 [Cdim] 1 , + , 2 , + , 3 , + , 4 , + ,
 
 {sot}
 e|-----------------8-----------------8-----------------8-----------------8-|
 B|---------------10----------------10----------------10----------------10--|
 G|-----------8-11--------------8-11--------------8-11--------------8-11----|
 D|-------------------------------------------------------------------------|
 A|-------7-----------------7-----------------7-----------------7-----------|
 E|-8--11-------------8--11-------------8--11-------------8--11-------------|
 {eot}
 
 From Bridge to Verse 3
 [C#] 
 [1] [+] [2] [+] [3] [+] [4] [+] [1] [+] [2] [+] [3] [+] [4] [+] 
 {sot}
 e|--9-------------------------------|----------------------------------|
 B|--9-------------------------------|----------------------------------|
 G|--10------------------------------|----------------------------------|
 D|--11------------------------------|----------------------------------|
 A|--11------------------------------|----------------------------------|
 E|--9---9-------9-------9-------9---|--9---9-------9-------9-------9---|
 {eot}
 
 Ending (not really possible for guitar, anyway here are the chords)
 [C#] [F#m/C#]
 [1] [+] [2] [+] [3] [+] [4] [+] [1] [+] [2] [+] [3] [+] [4] [+] 
 {sot}
 e|--9-------9-------9-------9-------|--9-------9-------9-------9-------|
 B|--9-------9-------9-------9-------|--10------10------10------10------|
 G|--10------10------10------10------|--11------11------13------11------|
 D|--11------11------11------11------|--11------11------11------11------|
 A|--11------11------11------11------|--9-------9-------9-------9-------|
 E|--9-------9-------9-------9-------|--9-------9-------9-------9-------|
 {eot}
 
 [C#] [F#m/C#]
 [1] [+] [2] [+] [3] [+] [4] [+] [1] [+] [2] [+] [3] [+] [4] [+] 
 {sot}
 e|--9-------9-------9-------9-------|--9-------9-------9-------9-------|
 B|--9-------9-------9-------9-------|--10------10------10------10------|
 G|--10------10------10------10------|--11------11------13------11------|
 D|--11------11------11------11------|--11------11------11------11------|
 A|--11------11------11------11------|--9-------9-------9-------9-------|
 E|--9-------9-------9-------9-------|--9-------9-------9-------9-------|
 {eot}
 
 [D] [Bm]
 [1] [+] [2] [+] [3] [+] [4] [+] [1] [+] [2] [+] [3] [+] [4] [+] 
 {sot}
 e|--10------10------10------10------|--7-------7-------7-------7-------|
 B|--10------10------10------10------|--7-------7-------7-------7-------|
 G|--11------11------11------11------|--7-------7-------7-------7-------|
 D|--12------12------12------12------|--9-------7-------9-------7-------|
 A|--12------12------12------12------|--9-------9-------9-------9-------|
 E|--10------10------10------10------|--7-------7-------7-------7-------|
 {eot}
 
 [C#] [F#m]
 [1] [+] [2] [+] [3] [+] [4] [+] [1] [+] [2] [+] [3] [+] [4] [+] 
 {sot}
 e|--9-------9-------9-------9-------|--2-------------------------------|
 B|--9-------9-------9-------9-------|--2-------------------------------|
 G|--10------10------10------10------|--2-------------------------------|
 D|--11------11------11------11------|--4-------------------------------|
 A|--11------11------11------11------|--4-------------------------------|
 E|--9-------9-------9-------9-------|--2-------------------------------|
 {eot}
 
 Intro (2x)
 
 Verse 1:
 Part 1 (2x)
 Part 2 (2x)
 Part 3 (1x)
 
 Verse 2:
 Part 1 (2x)
 Part 2 (2x)
 Part 3 (1x)
 
 Bridge (1x)
 From Bridge to Verse 3 (1x)
 
 Verse 3:
 Part 1 (2x)
 Part 2 (2x)
 Part 3 (1x)
 
 Bridge (1x)
 
 Ending (1x)
 
 ************************************
 
 | / slide up
 | \ slide down
 | h hammer-on
 | p pull-off
 | ~ vibrato
 | + harmonic
 | x Mute note
 | b Bend
 | pb Pre-bend
 | br Bend release
 | pbr Pre-bend release
 | brb Bend release bend
 
 ************************************