Song Information for Megalomania

Song Title:Megalomania
Artist:Muse
Hits:6
{t:Megalomania}
 {st:Muse}
 
 [Intro]
 [Em] [F#] [Am] [B7] [Em] [Am/C] [G/B] [Am] [G6] [E/G#] [Am][B7][Em]
 [Em] 
 {sot}
 E|-----0------------|
 B|----0-0-----0---0-|
 G|---0----0--0---0--|
 D|--2-------2---2---|
 A|---------2---2----|
 E|-0-----0----------| x4
 {eot}
 
 [Verse Picking Pattern]
 [Em] [F#m] [Am] [B7] 
 {sot}
 E|-----0---------------0---------------0-------2-------0-------2----|
 B|----0-0-----0---0---0-0-----0---0---0-0-----2-2-----1-1-----0-0---|
 G|---0----0--0---0---0----0--0---0---0---0---2---2---2---2---2---2--|
 D|--2-------2---2---2-------2---2---2-----2-4-----4-2-----2-1-----1-|
 A|---------2---2-----------2---2-------------------0-------2--------|
 E|-0-----0---------0-----0---------0-------2------------------------|
 {eot}
 
 [Em] [Am/C] [G/B] [Am] [G6] [E/G#] [Am] [B7] 
 {sot}
 E|-----0-------0-------3-------0-------0-------0-------0-------2----|
 B|----0-0-----1-1-----3-3-----1-1-----0-0-----0-0-----1-1-----0-0---|
 G|---0---0---2---2---0---0---2---2---0---0---1---1---2---2---2---2--|
 D|--2-----2-2-----2-0-----0-2-----2-2-----2-2-----0-2-----2-1-----0-|
 A|---------3-------2-------0-----------------------0-------2--------|
 E|-0-------------------------------3-------4------------------------|
 {eot}
 
 [Verse 1]
 [Em] Paradise comes at a price
 [F#m] That I am [Am]not prepared to [B7]pay
 [Em]What [Am/C]were w[G/B]e bu[Am]ilt fo[G6]r?
 Could [E/G#]someone [Am]tell me pl[B7]ease?
 
 [Em] The good news is, she can't have babies
 [F#m] And wont ac[Am]cept gifts from [B7]me
 [Em]What [Am/C]are they f[G/B]or?
 [Am]They'll just [G6]grow [E/G#]up, and [Am]break the laws you've [B7]loved[Em]
 
 [D6sus2] [Bsus4] 
 
 [Chorus]
 Am/C Am D G Gaug C
 Take ... off your dis..guise
 I know that [C/B]under[Am]neath
 It's [Bsus4]me, ... oo[Em]oh
 
 [Verse 2]
 [Em] Useless device, it won't suffice
 [F#m] I want a [Am]new game to [B7]play
 [Em]When [Am/C]I am [G/B]gone
 It [Am]won't be [G6]long, be[E/G#]fore I dis[Am]turb you in the [B7]dark
 
 [Em] And paradise comes at a price
 [F#m] That I am [Am]not prepared to [B7]pay
 [Em]What [E/G#]were [G6]we [E/G#]built [Am]for?
 Will someone [B7]tell me p[Em]lease?
 
 [D6sus2] [Bsus4] 
 
 [Chorus]
 Am/C Am D G Gaug C
 Take ... off your dis..guise
 I know that [C/B]under[Am]neath
 It's [Bsus4]me ...
 
 [Outro]
 [F#]...[D] o[F#]ooh[D] [F#] [D] [F#] [D] [F#]