Song Information for Screenager

Song Title:Screenager
Artist:Muse
Hits:8
{t:Screenager}
 {st:Muse}
 
 SONG-Screenager
 BAND-Muse
 WRITTEN BY-Matthew Bellamy
 TRANSCRIBED BY-Chris Bishop
 
 STANDARD TUNING
 CHORDS USED-
 
 [Gm(maj7)]A7aug
 D7*
 [Eb] 
 [Ebdim] 
 [D7/C] 
 [G/B]D7**
 [G] 
 [B] 
 [Em]Gm*9
 [A7] N.C.
 INTRO Gtr.(Nylon str. acoustic)
 
 {sot}
 e|----------------------||------------------------|------------------------|
 B|----------------------||------------------------|------------------------|
 G|--Ad lib. bells + fx--||-----3---3--------------|-----3---3--------------|
 D|----------------------||--0----0-------0-----0--|--0----0-------0-----0--|
 A|----------------------||-----------4-----4------|------------4-----4-----|
 E|----------------------||------------------------|------------------------|
 {eot}
 let ring
 w/reverse delay
 [Gm(maj7)] 
 {sot}
 e|------------------------|------------------------|--2----------------------------------|
 B|------------------------|------------------------|--3----------------------------------|
 G|-----3---3--------------|-----3---3--------------|--3--------------3-------------------|
 D|--0----0-------0-----0--|--0----0-------0-----0--|--0-----------0----------0----0---0--|
 A|------------4-----4-----|------------4-----4-----|----------------------4-----4---4----|
 E|------------------------|------------------------|-------------------------------------|
 {eot}
 
 [Gm(maj7)] 
 {sot}
 e|----------------------------------|--2----------------------------------|
 B|----------------------------------|--3----------------------------------|
 G|---------------3------------------|--3--------------3-------------------|
 D|------0-----0---------0----0---0--|--0-----------0----------0----0---0--|
 A|-------------------4-----4---4----|----------------------4-----4---4----|
 E|--3-------------------------------|-------------------------------------|
 e|-----------------------------------------|----------0--9h10--------------------|
 B|-----------------------------------------|------------------10h11--------------|
 G|------------------------------------5h8--|--7--7------------------11h12--------|
 D|------0-----------0------------5h7-------|------------------------------11h12--|
 A|---------------1----------3h6------------|-------------------------------------|
 E|--3---------3--------2--5----------------|-------------------------------------|
 e|--------6--6-----6------------------|---------------------------------|
 B|-----------5bu--5bu---3h4p3---------|--4------------------------------|
 G|--0------------------------5--3-----|--5br--3-------------------------|
 D|------------------------------------|-------------4p3-----------------|
 A|------------------------------------|------------------5--4--3--1--0--|
 E|------------------------------------|---------------------------------|
 e|-----------------------||
 B|-----------------------||
 G|-------0---------------||
 D|-----------------------||
 A|-----------------------||
 E|--3\\1-----0---(0)---2--||
 {eot}
 
 VERSE
 
 {sot}
 e||----------------------------------|---------------------------------------------|
 B||o---------------------------------|---------------------------------------------|
 G||-----3-----3----------------------|-----3-----------3---------------------------|
 D||---------0--------0------0-----0--|---------------0--------0-------0---------0--|
 A||o-------------4-------4-----4-----|--------------------4-------4--------4-------|
 E||--3-------------------------------|--3------------------------------------------|
 {eot}
 1.Who\'s so___ pho - ney__ and al-ways sur-ound -
 2.Hide from the mir - ror___ the cracks and the mem-
 
 
 {sot}
 e|-----------------------------------------|-----------------------------------|
 B|----------------2--3--------2--3---------|-----------------------------------|
 G|------3-----3---------3-----------3------|-----3-----3-----------------------|
 D|----------0--------------0-----------0---|---------0---------0------0-----0--|
 A|-----------------------------------------|---------------4-------4-----4-----|
 E|--3--------------------------------------|--3--------------------------------|
 {eot}
 - ed?______________________________ Stop____
 - or - ies.______________________________ Hide____
 
 A7aug D7
 
 {sot}
 e|---------------------------------|-------------------0-----------------------------------|
 B|---------------------------------|----------------------2--------------------------------|
 G|-----3-----3---------------------|--------3----------------3------------2----------------|
 D|--0------0---------0----------0--|-----2-----2----------------2---0-------------0-----0--|
 A|---------------4-------4---------|--0----------------------------------------4-----4-----|
 E|---------------------------------|-------------------------------------------------------|
 {eot}
 _ your_ scream - ing,_______ no - one__________
 _ from your fa-mi-ly___________ they won\'t know_________
 
 [Gm(maj7)] 
 {sot}
 e|--------------------------------------|---------------------------------------|
 B|--------------------------------------|---------------------------------------|
 G|--------------3-----------------------|--------------3------------------------|
 D|------0---------------0------0-----0--|------0---------------0------0-----0---|
 A|--------------------------4-----4-----|--------------------------4-----4------|
 E|--3-------3-------3-------------------|--3-------3-------3--------------------|
 {eot}
 can hear.________ All the scars_
 you now._________ For the holes_
 
 [E6] [Ebdim] 
 {sot}
 e|--------------------------------------------------|--------------------------------------------------|
 B|--------------8-----------------------8-----------|--------------7-----------7-----------7-----------|
 G|--------8--------8-----8--------8--------8-----8--|--------5--------5-----------5-----------5--------|
 D|-----8-----8--------8--------8-----8--------8-----|-----7-----7--------7-----------7-----------7-----|
 A|--6-----------------------6-----------------------|--6--------------------6-----------6-----------6--|
 E|--------------------------------------------------|--------------------------------------------------|
 {eot}
 _ on your skin; \"Post_______________
 _ in our souls host_______________
 
 D7* D7/C G/B D7
 
 {sot}
 e|--------------------------------------------------|-----------------------------------------||
 B|--------------7-----------------------7-----------|--------------8-----------------------7--||
 G|--------5--------5--------------5--------5--------|--------7--------7----------------5------||
 D|-----7-----7--------7--------7-----7--------7-----|-----5-----7--------5----------4---------||
 A|--5--------------------5--3--------------------3--|-----------------------------5-----------||
 E|--------------------------------------------------|--7--------------------7--5--------------||
 {eot}
 _ no bills.\"_________________________________
 _ no thrills.________________________________
 
 CHORUS
 [G(D] [bass)] [B(D#] [bass)] 
 {sot}
 e||-10--------10--------10--------10--------|-11--------11--------11--------11--------|
 B||----0----0----0----0----0----0----0----0-|----0----0----0----0----0----0----0----0-|
 G||------12--------12--------12--------12---|------12--------12--------12--------12---|
 D||-----------------------------------------|-----------------------------------------|
 A||-----------------------------------------|-----------------------------------------|
 E||-----------------------------------------|-----------------------------------------|
 {eot}
 Who you
 
 [Em] 
 {sot}
 e|-12--------12--------12--------12--------|-12--------12--------12--------12--------|
 B|----0----0----0----0----0----0----0----0-|----0----0----0----0----0----0----0----0-|
 G|------12--------12--------12--------12---|------12--------12--------12--------12---|
 D|-----------------------------------------|-----------------------------------------|
 A|-----------------------------------------|-----------------------------------------|
 E|-----------------------------------------|-----------------------------------------|
 {eot}
 were_______________________________________ was so
 
 [G(D] [bass)] [B(D#] [bass)] 
 {sot}
 e|-10--------10--------10--------10--------|-11--------11--------11--------11--------|
 B|----0----0----0----0----0----0----0----0-|----0----0----0----0----0----0----0----0-|
 G|------12--------12--------12--------12---|------12--------12--------11--------11---|
 D|-----------------------------------------|-----------------------------------------|
 A|-----------------------------------------|-----------------------------------------|
 E|-----------------------------------------|-----------------------------------------|
 {eot}
 beau -
 
 [Em] 
 {sot}
 e|-12--------12--------12--------12--------|-12--------12--------12--------12--------|
 B|----0----0----0----0----0----0----0----0-|----0----0----0----0----0----0----0----0-|
 G|------11--------11--------12--------12---|------12--------12--------12--------12---|
 D|-----------------------------------------|-----------------------------------------|
 A|-----------------------------------------|-----------------------------------------|
 E|-----------------------------------------|-----------------------------------------|
 {eot}
 - ti - ful.____________________ re - mem - ber________
 
 [G(D] [bass)] [B(D#] [bass)] 
 {sot}
 e|-10--------10--------10--------10--------|-11--------11--------11--------11--------|
 B|----0----0----0----0----0----0----0----0-|----0----0----0----0----0----0----0----0-|
 G|------12--------12--------12--------12---|------11--------11--------11--------11---|
 D|-----------------------------------------|-----------------------------------------|
 A|-----------------------------------------|-----------------------------------------|
 E|-----------------------------------------|-----------------------------------------|
 {eot}
 ____________________________________________________________________________________
 
 [Em] 
 {sot}
 e|-12--------12--------12--------12--------|-12--------12--------12--------12--------|
 B|----0----0----0----0----0----0----0----0-|----0----0----0----0----0----0----0----0-|
 G|------12--------12--------12--------12---|------12--------12--------12--------12---|
 D|-----------------------------------------|-----------------------------------------|
 A|-----------------------------------------|-----------------------------------------|
 E|-----------------------------------------|-----------------------------------------|
 {eot}
 _____________________________________________ who.__
 
 [G(D] [bass)] [B(D#] [bass)] 
 {sot}
 e|-10--------10--------10--------10--------|-11--------11--------11--------11--------|
 B|----0----0----0----0----0----0----0----0-|----0----0----0----0----0----0----0----0-|
 G|------12--------12--------12--------12---|------11--------11--------11--------11---|
 A|-----------------------------------------|-----------------------------------------|
 D|-----------------------------------------|-----------------------------------------|
 E|-----------------------------------------|-----------------------------------------|
 {eot}
 __ who__________________ you were__
 
 [Em] [D7] 
 {sot}
 e|-12--------12--------12--------12--------|----0---0--------------------------||
 B|----0----0----0----0----0----0----0----0-|--4---4-----0---0------------------||
 G|------12--------12--------12--------12---|----------3---3-----5---5----------||
 D|-----------------------------------------|------------------0---0-----0---0--||
 A|-----------------------------------------|--------------------------4---4----||
 E|-----------------------------------------|-----------------------------------||
 {eot}
 ______________________________________________
 
 {sot}
 [1.-----------------------------------------------------------------
 {eot}
 [Gm(maj7)] 
 {sot}
 e||--2-----------------------------|--------------------------------|
 B||--3-----3---3-------------------|--------------------------------|
 G||--3---3---3---3-----------------|-------3---3---------------5h8--|
 D||--0-----------------0----0---0--|----0----0---0---------5h7------|
 A||-----------------4-----4---4----|-------------------3h6----------|
 E||--------------------------------|-3-------------2-5--------------|
 ---------------------------------------------------------------------]
 e|-------0-9h10-------------------|----------6-6----------------------||
 B|--------------10h11-------------|----3----------6\\5/6--------------o||
 G|--7-----------------11h12-------|-0------0--------------------------||
 D|--------------------------11h12-|-----------------------------------||
 A|--------------------------------|----------------------------------o||
 E|--------------------------------|-----------------------------------||
 [2.-----------------------------
 {eot}
 [Gm(maj7)] 
 {sot}
 e|--2----------------------------|-----------------------------|
 B|--3----3---3-------------------|-----------------------------|
 G|--3--3---3---3-----------------|--------3---3----------------|
 D|--0----------------0----0---0--|-----0----0-------0----0---0-|
 A|----------------4-----4---4----|---------------4-----4---4---|
 E|-------------------------------|-3---------------------------|
 {eot}
 
 [Gm6/9] [A7] [D7] [Gm(maj7)] 
 {sot}
 e|--5--------------------|-------0---------------2-|-----------------||
 B|--4---------3-------3--|---------2----------1----|--3--------------||
 G|--3------3-------3-----|-----------0------2------|--3--------------||
 D|--0----0-------0-------|----2--------2-0---------|--0--------------||
 A|-----------------------|-0-----------------------|-----------------||
 E|-----------------------|-------------------------|-----------------||
 {eot}
 rit. Ad lib.