Song Information for Plug In Baby

Song Title:Plug In Baby
Artist:Muse
Hits:8
{t:Plug In Baby}
 {st:Muse}
 
 Title: Plug In Baby
 Author: Matthew Bailey
 
 INTRO/RIFF:
 X2
 
 {sot}
 e--------------------------------------------------------
 B-----------------------7h8p7----------------------------
 G-----6-----6-7---6-7-9--------9-7-6-----6----6-7--6-7-9-
 D-8-9---8-9-----9--------------------8-9---8-9----9------
 A--------------------------------------------------------
 E--------------------------------------------------------
 ---------------------------------------------------------
 7h8p7-6-7-6-7----------7---9-9^-7-6-7--------------------
 --------------7-------7---------------7-6-7-----6-----6-7
 ----------------7---7-----------------------8-9---8-9----
 ------------------9--------------------------------------
 ---------------------------------------------------------
 -----------------------|
 ---------7h8p9---------|
 ---6-7-9-------9-7-6---|
 -9-------------------9-|
 -----------------------|
 -----------------------| 
 {eot}
 
 Verse riff (arpeggio):
 
 
 {sot}
 E-17--------------18--------------19--------------17--------
 B-----19--------------19--------------20--------------19----
 G--------19--------------18--------------19--------------19-
 D-----------------------------------------------------------
 A-----------------------------------------------------------
 E-----------------------------------------------------------
 {eot}
 
 bridge
 [F#] 
 
 chorus
 
 My plug in baby
 [G] [Bm] 
 Crucifies my enemies
 [F#] [G] 
 When I'm tired of giving
 [Bm] 
 wooohoohoo
 [Bm] [F#] 
 My plug in baby
 [G]n unbroken virg[Bm]in realities
 [F#] [G] 
 And tired of living
 [D] 
 RIFF:
 X1
 
 {sot}
 e--------------------------------------------------------
 B-----------------------7h8p7----------------------------
 G-----6-----6-7---6-7-9--------9-7-6-----6----6-7--6-7-9-
 D-8-9---8-9-----9--------------------8-9---8-9----9------
 A--------------------------------------------------------
 E--------------------------------------------------------
 ---------------------------------------------------------
 7h8p7-6-7-6-7----------7---9-9^-7-6-7--------------------
 --------------7-------7---------------7-6-7-----6-----6-7
 ----------------7---7-----------------------8-9---8-9----
 ------------------9--------------------------------------
 ---------------------------------------------------------
 -----------------------|
 ---------7h8p9---------|
 ---6-7-9-------9-7-6---|
 -9-------------------9-|
 -----------------------|
 ----------------------- 
 {eot}
 
 
 Verse 2 riff (arpeggio)X2:
 
 
 {sot}
 E-17--------------18--------------19--------------17--------
 B-----19--------------19--------------20--------------19----
 G--------19--------------18--------------19--------------19-
 D-----------------------------------------------------------
 A-----------------------------------------------------------
 E-----------------------------------------------------------
 {eot}
 
 bridge
 [F#] 
 chorus
 
 My plug in baby
 [G] [Bm] 
 Crucifies my enemies
 [F#] [G] 
 When I'm tired of giving
 [Bm] 
 wwooohoohoo
 [Bm] [F#] 
 My plug in baby
 [G] [Bm] 
 In unbroken virgin realities
 [F#] [G] 
 And tired of living
 RIFF:[D]
 X3
 
 {sot}
 e--------------------------------------------------------
 B-----------------------7h8p7----------------------------
 G-----6-----6-7---6-7-9--------9-7-6-----6----6-7--6-7-9-
 D-8-9---8-9-----9--------------------8-9---8-9----9------
 A--------------------------------------------------------
 E--------------------------------------------------------
 ---------------------------------------------------------
 7h8p7-6-7-6-7----------7---9-9^-7-6-7--------------------
 --------------7-------7---------------7-6-7-----6-----6-7
 ----------------7---7-----------------------8-9---8-9----
 ------------------9--------------------------------------
 ---------------------------------------------------------
 -----------------------|
 ---------7h8p9---------|
 ---6-7-9-------9-7-6---|
 -9-------------------9-|
 -----------------------|
 ----------------------- 
 {eot}
 
 The Chorus in this song has got weird timing so play along with the cd and you will be alright.