Song Information for Hyper Music

Song Title:Hyper Music
Artist:Muse
Hits:6
{t:Hyper Music}
 {st:Muse}
 
 SONG-Hyper Music
 ARTIST-Muse
 WRITTEN BY-Matt Bellamy
 TRANSCRIBED BY-Chris Bishop
 
 
 {sot}
 DROP D TUNING-low to high(D-A-D-G-B-E)
 {eot}
 CHORDS USED
 
 [D7#9]D7#9*
 [Dm] 
 [Am] 
 [G] 
 [Gm] 
 INTRO Gtr.1(elec.) D7#9
 w/heavy distortion
 
 {sot}
 e||----------------------------||------------------||-------13---------------------|
 B||--w/ad lib.pick scratching--||------------------||-------13-----12--13--12--11--|
 G||----at top of neck----------||------------------||-------11---0-----------------|
 D||----------------------------||------------------||-------12-----12--12--12--12--|
 A||------Grad.accel.-----------||----------5/14\\--||------------------------------|
 D||----------------------------||----x~~~----------||--0---------------------------|
 {eot}
 Gtr.1 + Gtr.2(elec.)
 w/crunch overdrive
 
 {sot}
 e|-------13---------------------|-------13----------------------|-------12------------------||
 B|-------13-----12--13--12--11--|-------13------12--13--12--11--|-------13------------------||
 G|-------11---0-----------------|-------11---0------------------|-------12------------------||
 D|-------12-----12--12--12--11--|-------12------12--12--12--12--|-------11------------------||
 A|------------------------------|-------------------------------|---------------------------||
 D|--0---------------------------|--0----------------------------|--0----------12-12--12\\\--||
 {eot}
 Ooh,
 D7#9*
 
 {sot}
 e||-------------------------------|--------------------------|
 B||o------6-----------------------|-------6------------------|
 G||-------5-----------------------|-------5------------------|
 D||-------4-----------------------|-------4------3--3--3--3--|
 A||o-----(5)----------------3--5--|------(5)-----2--3--2--1--|
 D||--0--------0---3-3--5----------|--0--------0--------------|
 {eot}
 ooh.______________________________________________________
 
 
 {sot}
 [1.---------------------------]
 e|-------------------------------|-----------------------------||
 B|-------6-----------------------|-------6----x--x-x----------o||
 G|-------5-----------------------|-------5----x--x-x--8--8--8--||
 D|-------4-----------------------|-------4----x--x-x--7--7--7--||
 A|------(5)----------------3--5--|------(5)---x--x-x----------o||
 D|--0--------0---3-3--5----------|--0--------------------------||
 {eot}
 ___________________________________ Ooh,
 
 
 {sot}
 [2.---------------------------
 {eot}
 [Dm]Gtr.2 cont.in slashes etc.
 v v v v v v v v v v v v v v v v
 Gtr.1
 
 {sot}
 e|----------------------------|--------------------------|--------------------------||
 B|-------6---x--x-x-----------|--------------------------|--------------------------||
 G|-------5---x--x-x--8--8--8--|--------------------------|--------------------------||
 D|-------4---x--x-x--7--7--7--|--------------------------|--------------------------||
 A|------(5)--x--x-x-----------|--------------------------|--------------------------||
 D|--0-------------------------|--0-----------------------|--------------------------||
 {eot}
 ___ Mm___________________
 
 [Dm] cont.sim.[Am]
 v v v v v v v v v v v v v v v v
 Fuzz bass arr.for gtr.
 
 {sot}
 e||-----------------------------------|------------------------------------|
 B||o----------------------------------|------------------------------------|
 G||-----------------------------------|------------------------------------|
 D||-----------------------------------|------------------------------------|
 A||o----------------------------------|------------------------------------|
 D||--0---0---x-2---x-3---3---x-5---x--|--7---7---x-9---x-10--10--x-12---x--|
 {eot}
 ___ (Vocal ad lib.on rpt.)
 
 
 {sot}
 [1.---------------------------------][2.----------------------------------
 {eot}
 [G] [Gm] [Gm] 
 {sot}
 e|-----------------------------------|-----------------------------------||-----------------------------------||
 B|-----------------------------------|----------------------------------o||-----------------------------------||
 G|-----------------------------------|-----------------------------------||-----------------------------------||
 D|-----------------------------------|-----------------------------------||-----------------------------------||
 A|-----------------------------------|------------0---x-1---1---x-3---x-o||------------0---x-1---1---x-3---x--||
 D|--5---5---x-5---x-5---5---x-5---x--|--5---5---x------------------------||--5---5---x------------------------||
 {eot}
 1.And your gol-den skies__________
 
 VERSE
 [Dm] cont.sim.[Am][G]
 Gtr.2 v v v v v v v v
 2*Gtr.2 plays harmonics w/selector switch + whammy pedal
 
 {sot}
 e||-----------------------------------|-------------------------------------|-----------------------------------|
 B||o----------------------------------|-------------------------------------|-----------------------------------|
 G||-----------------------------------|-------------------------------------|-----------------------------------|
 D||-----------------------------------|-------------------------------------|-----------------------------------|
 A||o----------------------------------|-------------------------------------|-----------------------------------|
 D||--0---0---x-2---x-3---3---x-5---x--|--7---7---x-9--x-10---10---x-12---x--|--5---5---x-5---x-5---5---x-5---x--|
 {eot}
 _______________________________________ feed my role_____
 _______________________________________ than I____ was worth____
 
 [Gm] [Dm] [Am] 
 {sot}
 e|-------------------------------------|-----------------------------------|---------------------------------------|
 B|-------------------------------------|-----------------------------------|---------------------------------------|
 G|-------------------------------------|-----------------------------------|---------------------------------------|
 D|-------------------------------------|-----------------------------------|---------------------------------------|
 A|------------0---x---1---1---x-3---x--|-----------------------------------|---------------------------------------|
 D|--5---5---x--------------------------|--0---0---x-2---x-3---3---x-5---x--|--7---7---x-9---x--10---10---x-12---x--|
 {eot}
 in this for - got-ten space________________ race and und - er my con - trol.__
 and you think I was scared_______________ yeah. you need - ed proof__
 
 [G] [Gm] 2[Dm]*Gtr.2 w/Fig.1
 
 {sot}
 e|-----------------------------------|-----------------------------------|-----------------------------------|
 B|-----------------------------------|-----------------------------------|-----------------------------------|
 G|-----------------------------------|-----------------------------------|-----------------------------------|
 D|-----------------------------------|-----------------------------------|-----------------------------------|
 A|-----------------------------------|------------0---x-1---1---x-3---x--|-----------------------------------|
 D|--5---5---x-5---x-5---5---x-5---x--|--5---5---x------------------------|--0---0---x-2---x-3---3---x-5---x--|
 {eot}
 ________________________________________ Who's_________________________________________
 ________________________________________ Who___________________________________________
 
 [Am] [G] [Gm] 
 {sot}
 e|--------------------------------------|-----------------------------------|-----------------------------------|
 B|--------------------------------------|-----------------------------------|-----------------------------------|
 G|--------------------------------------|-----------------------------------|-----------------------------------|
 D|--------------------------------------|-----------------------------------|-----------------------------------|
 A|--------------------------------------|-----------------------------------|------------0---x-1---1---x-3---x--|
 D|--7---7---x-9---x-10---10---x-12---x--|--5---5---x-5---x-5---5---x-5---x--|--5---5---x------------------------|
 {eot}
 ___ re - turned from the dead?____________ Who______
 ___ really cares an - y - more?____________ Who______
 
 [Dm] [Am] [G] 
 {sot}
 e|-----------------------------------|--------------------------------------|---------------------|
 B|-----------------------------------|--------------------------------------|---------------------|
 G|-----------------------------------|--------------------------------------|---------------------|
 D|-----------------------------------|--------------------------------------|---------------------|
 A|-----------------------------------|--------------------------------------|---------------------|
 D|--0---0---x-2---x-3---3---x-5---x--|--7---7---x-9---x-10---10---x-12---x--|--5------------------|
 {eot}
 ______________________________________________________________ re - mains?
 ______________________________________________________________ re - strains?
 
 **********************************************************************************************
 * Fig.1 *
 * Gtr.2 *
 * Dm Am G *
 
 {sot}
 * e|--10----------10----------|--8----------8---------|--7----------7--------| *
 * B|------10----------10------|-----10---------10-----|-----8----------8-----| *
 * G|----------10----------10--|---------9----------9--|--------7----------7--| *
 * D|--------------------------|-----------------------|----------------------| *
 * A|--------------------------|-----------------------|----------------------| *
 * D|--------------------------|-----------------------|----------------------| * 
 {eot}
 * Gm Dm Am G *
 
 {sot}
 * e|--6----------6--------|--10-------10--------------|--8---------8------------|--7------|| *
 * B|-----8----------8-----|-----10-------10----10-----|----10--------10---10----|--8------|| *
 * G|--------7----------7--|--------10-------10----10--|-------9---------9----9--|--7------|| *
 * D|----------------------|---------------------------|-------------------------|---------|| *
 * A|----------------------|---------------------------|-------------------------|---------|| *
 * D|----------------------|---------------------------|-------------------------|---------|| *
 {eot}
 * *
 **********************************************************************************************
 
 */\ /\ /\ /\ /\ /\ /\ \/ /\ \/[D7#9]
 
 {sot}
 e|--------------------------------|-------13---------------------|-------13---------------------|
 B|--------------------------------|-------13-----12--13--12--11--|-------13-----12--13--12--11--|
 G|--------------------------------|-------11---0-----------------|-------11---0-----------------|
 D|--------------------------------|-------12-----12--12--12--12--|-------12-----12--12--12--12--|
 A|--------------------------------|------------------------------|------------------------------|
 D|--------------------------------|--0---------------------------|--0---------------------------|
 {eot}
 (just to spit it in your face)
 *Pick scrape /\=toward headstock
 \/=toward bridge
 
 
 {sot}
 e|-------13---------------------|-----------13---------------------||
 B|-------13-----12--13--12--11--|-----------13---------------------||
 G|-------11---0-----------------|-----------11---------------------||
 D|-------12-----12--12--12--12--|-----------12---------------------||
 A|------------------------------|-------------------------5/15\\\--||
 D|--0---------------------------|--0------------------x~~~~--------||
 {eot}
 You know that I don't
 
 CHORUS
 D7#9*
 Gtrs 1+2
 
 {sot}
 e||--------------------------|--------------------------|--------------------------|
 B||-------6------------------|-------6------------------|-------6------------------|
 G||-------5------------------|-------5------------------|-------5------------------|
 D||-------4------------5--7--|-------4------3--3--3--3--|-------4------------5--7--|
 A||------(5)-----3--5--3--5--|------(5)-----2--3--2--1--|------(5)-----3--5--3--5--|
 D||--0--------0--3--5--------|--0--------0--------------|--0--------0--3--5--------|
 {eot}
 want you. and I nev-er did.__________________
 love you.
 
 
 {sot}
 e|--------------------------|--------------------------|--------------------------|
 B|-------6------------------|-------6------------------|-------6------------------|
 G|-------5------------------|-------5------------------|-------5------------------|
 D|-------4------3--3--3--3--|-------4------------5--7--|-------4------3--3--3--3--|
 A|------(5)-----2--3--2--1--|------(5)-----3--5--3--5--|------(5)-----2--3--2--1--|
 D|--0--------0--------------|--0--------0--3--5--------|--0--------0--------------|
 {eot}
 I don't want you, and I nev-er will__
 
 
 {sot}
 [1.----------------------------------------------
 {eot}
 [Dm] 
 {sot}
 e|--------------------------|--------------------------|---------------------|
 B|-------6------------------|-------6------------------|---------------------|
 G|-------5------------------|-------5------------------|---------------------|
 D|-------4------------5--7--|-------4------3--3--3--3--|---------------------|
 A|------(5)-----3--5--3--5--|------(5)-----2--3--2--1--|---------------------|
 D|--0 -------0--3--5--------|--0--------0--------------|--0------------------|
 {eot}
 ______________________________
 
 
 {sot}
 ----------------------------][2.------------------------
 e|----------------------------||--------------------------|----------------------------|
 B|---------------------------o||-------6------------------|-------13-------------------|
 G|----------------------------||-------5------------------|-------11-------------------|
 D|----------------------------||-------4------3--3--3--3--|-------12---0-0/11--11--11--|
 A|---------------------------o||------(5)-----2--3--2--1--|--------0-------------------|
 D|----------------------------||--0--------0--------------|--0-----0-------------------|
 {eot}
 2.And you want-ed more______ ___ Waah!__________________
 
 
 {sot}
 e|----------------------------|----------------------------|
 B|-------13-------------------|-------13-------------------|
 G|-------11-------------------|-------11-------------------|
 D|-------12---0-0/11--11--11--|-------12---0-0/11--11--11--|
 A|--------0-------------------|--------0-------------------|
 D|--0-----0-------------------|--0-----0-------------------|
 e|-------13-------------------------------|--------------------------|
 B|-------13-------12b---------------------|--------------------------|
 G|-------11-------12b--12-12-10h12p10-----|--10----------------------|
 D|-------12--0-0----------------------12--|--------0-----------------|
 A|--------0-------------------------------|--------------------3--5--|
 D|--0-----0-------------------------------|------------0-4--5--------|
 {eot}
 
 [D7#9] 
 {sot}
 e|-----------------------------------|--------------------------|
 B|-------6----12b--------------------|--------------------------|
 G|-------5----12b--12-12-10-10-------|--10----------------------|
 D|-------4---------------------12----|--------0-----------------|
 A|-------5---------------------------|--------------------3--5--|
 D|--0--------------------------------|------------0-4--5--------|
 e|---------------------------------------|------------------------|-------------------||
 B|-------6--x-x-14-14-14-14-14-14-14-14--|------------------------|-------------------||
 G|-------5--x-x-13-13-13-13-13-13-13-13--|-------pb9--------------|------ad lib.------||
 D|-------4--x-x--------------------------|------------------------|-------------------||
 A|-------5--x-x--------------------------|------------------------|-------------------||
 D|--0------------------------------------|--0---------------------|-------------------||
 {eot}