Song Information for Space Dementia

Song Title:Space Dementia
Artist:Muse
Hits:5
{t:Space Dementia}
 {st:Muse}
 
 Tuning Standard
 
 Transfered from piano. If you find any misstakes please send me a message!
 
 Intro:
 
 {sot}
 E|-12----------14-|-15----------17-|-18-------------|
 B|----------------|----------------|-------------19-|
 G|----------------|----------------|----------------|
 D|---------9------|--------10------|--------11------|
 A|--------10------|--------10------|--------13------|
 E|--------12------|--------12------|--------14------|
 |-19--------------|-12----------11-|-12----------14-|
 |--------------12-|-12-------------|-13-------------|
 |--------14-------|-12-------------|-12-------------|
 |--------13-------|--------14------|--------14------|
 |--------14-------|--------14------|--------15------|
 |--------14-------|--------15------|--------15------|
 |-15----------14-|-12---------------------------8-9-10-|
 |-17-------------|-------------------9-10-11-12--------|
 |-18-------------|------8-9-10-11-12-------------------|
 |--------11------|-------------------------------------|
 |--------13------|-------------------------------------|
 |--------14------|-------------------------------------|
 |--------------------9------8---|
 |---------------7-10------------|
 |-------------8-----------------|
 |--------9-10-------------------|
 |----6-9------------------------|
 |--7----------------------7-----|
 {eot}
 
 Verse:
 
 Lots of ways to grab these chords. This is my way so you get that high climax-feel.
 
 [Emadd9] [B7/F#] [G7M] [Amadd9] [Bm7] [C#dim] [D6] [B7] 
 {sot}
 |--0--|--2--|--3--|--5--|--7--|--9---|--10--|--11--|
 |--0--|--4--|--0--|--0--|--7--|--11--|--10--|--12--|
 |--0--|--2--|--0--|--5--|--7--|--9---|--11--|--11--|
 |--4--|--4--|--4--|--2--|--7--|--11--|--12--|--13--|
 |--2--|--2--|--2--|--0--|--9--|--10--|--14--|--12--|
 |--0--|--2--|--3--|-----|--7--|--9---|--10--|--11--|
 {eot}
 
 Chorus:
 
 First bars are all x4 (notes are sixteenth so they fill up one bar, just listen to the song)
 
 [E5] [B] [Dm6] [A] 
 {sot}
 |----------|---------------|---------------|-------------|
 |-12-------|-12---------12-|-10---------10-|-10-------10-|
 |----9---9-|----11---11----|----10---10----|----9---9----|
 |------9---|-------9-------|-------9-------|------7------|
 |----------|---------------|---------------|-------------|
 |----------|---------------|---------------|-------------|
 {eot}
 
 Am B7 B Baug
 
 {sot}
 |----------|-----------------------------------|
 |-10-------|-10-------10-------7-------8-------|
 |----9---9-|----8---8----8---8---8---8---8---8-|
 |------7---|------9--------9-------9-------9---|
 |----------|-----------------------------------|
 |----------|-----------------------------------|
 {eot}
 
 [E] [Em] 
 {sot}
 |---------------------------------|
 |-9-------9-------8-------8-------|
 |---9---9---9---9---9---9---9---9-|
 |-----9-------9-------9-------9---|
 |---------------------------------|
 |---------------------------------|
 {eot}
 
 [A7] [F#7] 
 {sot}
 |-------------------------------------|
 |-8--------8--------7--------7--------|
 |---9----9---9----9---9----9---9----9-|
 |-----11-------11-------11-------11---|
 |-------------------------------------|
 |-------------------------------------|
 {eot}
 
 [D] [Dm] 
 {sot}
 |---------------------------------|
 |-7-------7-------6-------6-------|
 |---7---7---7---7---7---7---7---7-|
 |-----7-------7-------7-------7---|
 |---------------------------------|
 |---------------------------------|
 {eot}
 
 [G7] [Em7] 
 {sot}
 |---------------------------------|
 |-6-------6-------6-------5-------|
 |---7---7---7---7---7---7---7---7-|
 |-----9-------9-------9-------9---|
 |---------------------------------|
 |---------------------------------|
 {eot}
 
 [C] 
 {sot}
 |---------------------------------|
 |-5-------5-------5-------5-------|
 |---5---5---5---5---5---5---5---5-|
 |-----5-------5-------5-------5---|
 |---------------------------------|
 |---------------------------------|
 {eot}
 
 [F#] [F#7] 
 {sot}
 |---------------------------------|
 |-7-------7-------7-------5-------|
 |---6---6---6---6---6---6---6---6-|
 |-----8-------8-------8-------8---|
 |---------------------------------|
 |---------------------------------|
 {eot}
 
 [Bsus4] [B] [Bm] 
 {sot}
 |---------------------------------|
 |-5-------4-------3-------3-------|
 |---4---4---4---4---4---4---4---4-|
 |-----4-------4-------4-------4---|
 |---------------------------------|
 |---------------------------------|
 {eot}
 
 E7 E6 Eaug E
 
 {sot}
 |---------------------------------|
 |-3-------2-------1-------0-------|
 |---1---1---1---1---1---1---1---1-|
 |-----2-------2-------2-------2---|
 |---------------------------------|
 |---------------------------------|
 {eot}
 
 [Fb5] 
 {sot}
 |---------------------------------|
 |-0-------0-------0-------0-------|
 |---2---2---2---2---2---2---2---2-|
 |-----3-------3-------3-------3---|
 |---------------------------------|
 |---------------------------------|
 {eot}
 
 [F#7] 
 {sot}
 |---------------------------------|
 |---------------------------------|
 |-3-------3-------3-------3-------|
 |---4-2-4---4-2-4---4-2-4---4-2-4-|
 |---------------------------------|
 |---------------------------------|
 {eot}
 
 [Bsus2] 
 {sot}
 |---------------------------------|
 |---------------------------------|
 |-4-------4-------4-------4-------|
 |---4-2-4---4-2-4---4-2-4---4-2-4-|
 |---------------------------------|
 |---------------------------------|
 {eot}
 
 Break
 
 {sot}
 |---------------------------------|
 |---------------------------------|
 |---------------------------------|
 |-1-0-1-0-1-0-1-0-1-0-1-0-1-0-1-0-|
 |---------------------------------|
 |---------------------------------|
 |---------------------------------|
 |---------------------------------|
 |-4-2-0---------------------------|
 |-------4-3-2-1-0-----------------|
 |-----------------4-3-2-1-0-------|
 |---------------------------4-3-2-|
 {eot}
 
 Verse
 
 Chorus
 
 Outro, again that x4 thing
 [F#7] [Bsus2] [F#7] [Bsus2] [F#7] [Fmb5] 
 {sot}
 |---------|---------|---------|---------|---------|---------|
 |---------|---------|---------|---------|---------|---------|
 |-3-------|-4-------|-3-------|-4-------|-3-------|-2-------|
 |---4-2-4-|---4-2-4-|---4-2-4-|---4-2-4-|---4-2-4-|---4---4-|
 |---------|---------|---------|---------|---------|-----3---|
 |---------|---------|---------|---------|---------|---------|
 {eot}
 
 [G] [Gm] [Dsus4] [D] 
 {sot}
 |---------|---------|---------------------------------|
 |---------|---------|---------------------------------|
 |-4-------|-3-------|-2-------2-------2-------2-------|
 |---5---5-|---5---5-|---5---5---5---5---4---4---4---4-|
 |-----5---|-----5---|-----5-------5-------5-------5---|
 |---------|---------|---------------------------------|
 {eot}
 
 [A7] 
 {sot}
 |---------|
 |---------|
 |-2-------|
 |---5---5-|
 |-----4---|
 |---------|
 {eot}
 
 And the grand final!
 
 [C] 
 {sot}
 |-------|
 |--1----|
 |--0----|
 |--2----|
 |--3----|
 |-------|
 {eot}
 
 Mess around with it! On guitar I tap with massive delay + phaser. When you think you`re
 enough go the end:
 
 [E5] [G5] [C5] [B5] [Bb5] [F#5] [B5] 
 {sot}
 |-----------|----------|-------------|----------|
 |-----------|----------|-------------|----------|
 |-----------|-5------4-|-3-----------|-4--------|
 |-2----5----|-5------4-|-3------4----|-4--------|
 |-2----5----|-3------2-|-1------4----|-2--------|
 |-0----3----|----------|--------2----|----------|
 {eot}
 
 [E5] [E5] 
 {sot}
 |-----------|--------------|
 |-----------|--------------|
 |-----------|--------------|
 |-2---------|-2-----4---4b-|
 |-2---------|-2------------|
 |-0---------|-0------------|
 {eot}
 
 [Em] 
 {sot}
 |-----------|-------------|--------------|
 |-----------|-------------|--------------|
 |-----------|-------------|-0------------|
 |-4br-----2-|-2-----1-----|-2------------|
 |-----------|-------------|-2------------|
 |-----------|-------------|-0------------|
 {eot}
 
 Well, that`s it!
 
 Any comments or corrections are more then welcome, send me a message (MaXiMuse) or leave
 comment/correction.