Song Information for New Born

Song Title:New Born
Artist:Muse
Hits:6
{t:New Born}
 {st:Muse}
 
 Muse: New Born (Main Riff)
 Tabbed by Paul Gargon
 
 This is the really distorted part that follows on
 from the keyboard at the beginning of the song.
 [E5] [G5] [A5] [C5] [D5] 
 {sot}
 E-----------------|----------------|------------------------|
 B-----------------|----------------|------------------------|
 G-----------------|----------------|------------------------|
 D-----------------|----------------|------------------------|
 A-----------------|----------------|------------------------|
 E-0-0-0-0-3-0-3-3s|5-5-5-5-8-5-8-8s|10-10-10-10-10-10-10-10-|
 {eot}
 ( Tab from: http://www.guitartabs.cc/tabs/m/muse/new_born_tab_ver_3.html )
 [G5] [B5] [C5] [A#5] [B5] 
 {sot}
 E-----------------|----------------|------------|
 B-----------------|----------------|------------|
 G-----------------|----------------|------------|
 D-----------------|-10-----8-------|-9----------|
 A-----------------|-10-----8-------|-9----------|
 E-3-3-3-3-7-7-7-7-|-8------6-------|-7----------|
 {eot}
 
 The single notes can be filled into full
 power chords, using dropped d tuning:
 
 [E5] [G5] [A5] [C5] [D5] 
 {sot}
 E-----------------|-------------------|------------------------|
 B-----------------|-------------------|------------------------|
 G-----------------|-------------------|------------------------|
 D-----------------|-------------------|------------------------|
 A-2-2-2-2-5-2-5-5s|7-7-7-7-10-7-10-10s|12-12-12-12-12-12-12-12-|
 D-2-2-2-2-5-2-5-5s|7-7-7-7-10-7-10-10s|12-12-12-12-12-12-12-12-|
 {eot}
 
 [G5] [B5] [C5] [A#5] [B5] 
 {sot}
 E-----------------|----------------|------------|
 B-----------------|----------------|------------|
 G-----------------|----------------|------------|
 D-----------------|-10-----8-------|-9----------|
 A-----------------|-10-----8-------|-9----------|
 D-5-5-5-5-9-9-9-9-|-10-----8-------|-9----------|
 {eot}
 
 More to come when I get round to the rest of it...