Song Information for Escape

Song Title:Escape
Artist:Muse
Hits:7
{t:Escape}
 {st:Muse}
 
 Title: escape
 Transcribed by: Mark Lawrence Hampshire UK
 E-Mail: Bloodysod15@yahoo.co.uk
 E-mail me for requests 4 more muse tab, best results ever time!!!
 I Hope to get together my own muse site on the url below that will hold tabs 4 all muse songs
 old & new!!
 URL: http://web.libertysurf.co.uk/mark.lawrence/index.htm
 
 http://www.musenet.fr.st
 
 Intro & Verse:
 
 
 {sot}
 -----------------------------------------------------------------------------------------
 -----3-----3------------------3----3-----2--------2----2----0--------0----0----3----3----
 -----2-----2------------------2----2-----0--------0----0----0--------0----0----2----2----
 -----0------------------------------------------------------------------------------0----
 -----------------------------------------------------------------------------------------
 -----------------------------------------------------------------------------------------
 ---------------------------------------------
 ----------3----3-----2--------2--2--0--------
 ----------2----2-----0--------0--0--0--------
 ---------------------------------------------
 ---------------------------------------------
 ---------------------------------------------
 {eot}
 
 Bridge:
 
 [F] [#] [F#]
 
 {sot}
 -------------------------------------------------------------------------------
 -----------------------2-----------------------------------2-------------------
 -------------3---------------3-------3-------------3-------------3---------3---
 -------------------4-------------4----------------------4--------------4-------
 -------------------------------------------------------------------------------
 --------2-------------------------------------2--------------------------------
 {eot}
 
 [Bm] 
 
 {sot}
 --------------------------------------------------
 ---------------------3----------------------------
 ----------4-------------4--------4----------------
 ----------------4-----------4---------------------
 ----2---------------------------------------------
 --------------------------------------------------
 {eot}
 [A/Bm] [G#/Bm]
 
 {sot}
 ---------------------------------------------------------------------------------
 -----------------------3----------------------------------------3----------------
 --------------4------------4----------4---------------4-------------4--------4---
 --------------------4-------------4-------------------------4------------4-------
 --------0------------------------------------------------------------------------
 -------------------------------------------------4-------------------------------
 {eot}
 [G/Bm] 
 
 {sot}
 -----------------------------------------------------
 -----------------------3-----------------------------
 -------------4-------------4--------4----------------
 -------------------4------------4--------------------
 -----------------------------------------------------
 ---------3-------------------------------------------
 {eot}
 
 [F#/Bm] [F#]
 
 {sot}
 --------------------------------------------------------------------------------
 ----------------------3------------------------------------2--------------------
 ------------4-------------4--------4------------3--------------4---------4------
 -------------------4------------4----------------------4------------4-----------
 --------------------------------------------------------------------------------
 -------2------------------------------------2-----------------------------------
 {eot}
 
 Ending of Bridge:
 
 [F#] 
 
 {sot}
 ------2------------------------
 -----------2-------------------
 ----------------3--------------
 ---------------------4---------
 -------------------------------
 -------------------------2-----
 {eot}
 
 Chorus:
 
 [B] [G] 
 
 {sot}
 -------------------------------------------------------------------
 -------------2^3----3^2----0---------------------------------------
 -----4---4---------------------------------------------------------
 -----4---4-------------------------5---5---5---5---5---5---5---5--- X2
 -----2---2-------------------------5---5---5---5---5---5---5---5---
 -----------------------------------3---3---3---3---3---3---3---3---
 {eot}
 
 [B] [G] 
 
 {sot}
 -------------------------------------------------------------------
 -------------5^7----7^5----3---------------------------------------
 -----4---4---------------------------------------------------------
 -----4---4-------------------------5---5---5---5---5---5---5---5--- X2
 -----2---2-------------------------5---5---5---5---5---5---5---5---
 -----------------------------------3---3---3---3---3---3---3---3---
 {eot}
 
 [D] [G]
 
 {sot}
 -------------------------------------------------------------------------------
 -------------------------------------------------------------------------------
 ---7---7---7---7---7---7---7---7-----------------------------------------------
 ---7---7---7---7---7---7---7---7------5---5---5---5---5---5---5---5---4-4-4-4--
 ---5---5---5---5---5---5---5---5------5---5---5---5---5---5---5---5---4-4-4-4--
 --------------------------------------3---3---3---3---3---3---3---3---2-2-2-4--
 ----------------------------------------------------------------------------
 ----------------------------------------------------------------------------
 ---4----4---------------------------------------------------------4--4------
 ---4----4---------------------5---5---5---5---5---5---5---5-------4--4------
 ---2----2---------------------5---5---5---5---5---5---5---5-------2--2------
 ------------------------------3---3---3---3---3---3---3---3-----------------
 --------------------------------------------------
 --------------------------------------------------
 --------------------------------------------------
 ---------5---5---5---5---5---5---5---5------------
 ---------5---5---5---5---5---5---5---5------------
 --6^7*---3---3---3---3---3---3---3---3------------
 {eot}
 
 [B] [G] 
 
 {sot}
 -------------------------------------------------------------------
 -------------7------7----------------------------------------------
 -----4---4---9^11---9^11-------------------------------------------
 -----4---4-------------------------5---5---5---5---5---5---5---5---
 -----2---2-------------------------5---5---5---5---5---5---5---5---
 -----------------------------------3---3---3---3---3---3---3---3---
 {eot}
 
 [B] [G] 
 
 {sot}
 -------------------------------------------------------------------
 -------------------------------------------------------------------
 -----4---4---------------------------------------------------------
 -----4---4----7^9-larsen-----------5---5---5---5---5---5---5---5---
 -----2---2-------------------------5---5---5---5---5---5---5---5---
 -----------------------------------3---3---3---3---3---3---3---3---
 {eot}
 
 Intro again
 
 Thanks