Song Information for Sober

Song Title:Sober
Artist:Muse
Hits:6
{t:Sober}
 {st:Muse}
 
 This is muse's sober from OOS!
 gOOD LUCK!
 paulhutch55@hotmail.com
 
 Intro:
 [1)] 
 
 {sot}
 |---------------------------------------------------------------------
 |-------12-------12---------12---------12-------------------------------------
 |---------------------------------------------------------------------
 |------------9---------9-----------9----------9---------------------------
 |---------------------------------------------------------------------
 |---------------------------------------------------------------------
 {eot}
 play this 5 times
 [2)] 
 {sot}
 |---------------------------------------------------------------------
 |---------------------------------------------------------------------
 |-------10-------10---------10---------10-------------------------------------
 |------------9--------9-----------9-----------9---------------------------
 |---------------------------------------------------------------------
 |---------------------------------------------------------------------
 {eot}
 X 1 and the the first one again
 
 [3)] 
 {sot}
 |---------------------------------------------------------------------
 |---------------------------------------------------------------------
 |------13--------13---------13--------13--------------------------------------
 |-----------9----------9---------9----------9-----------------------------
 |---------------------------------------------------------------------
 |---------------------------------------------------------------------
 {eot}
 
 Then the first one again X1 abd then the 2nd X1 and then the third once.
 I know this intro is 100% correct.I cant b arsed 2 tab the rest but if u
 desperately want it then email me.
 
 For this use lots of distortion and the pitch shift set one octave down!