Song Information for Unintended

Song Title:Unintended
Artist:Muse
Hits:5
{t:Unintended}
 {st:Muse}
 
 Tabbed by chris,rudiger@btinternet.com.
 
 {sot}
 #----------------------------------PLEASE NOTE---------------------------------#
 {eot}
 #This file is the author's own work and represents their interpretation of the #
 #song. You may only use this file for private study, scholarship, or research. #
 
 {sot}
 #------------------------------------------------------------------------------##
 {eot}
 
 "Unintended" - MUSE - from the album "Showbiz"
 
 Intro: (arpeggio)
 
 h: hammer on
 
 [Em] [Em] 
 {sot}
 E-|------0-----------------------------0---------------------|
 B-|----------------------------------------------------------|
 G-|----------------------------------------------------------|
 D-|------2-----------------------------2---------------------|
 A-|---2----------0-h2-4-3-2-0-------2----------0-h2-4-3-2-0--|
 E-|-0----0--0-h4------------------0----0--0-h4---------------|
 {eot}
 
 [B7] [B7] 
 {sot}
 E-|----------2---------------------2---------|
 B-|------0-----0---0-----------0-----0---0---|
 G-|--------2-----2---------------2-----2-----|
 D-|----1---------------------1---------------|
 A-|--2---------------------2-----------------|
 E-|------------------------------------------|
 {eot}
 
 play it with arpeggio all the time (Do not use a pick)
 
 [E]You could be my [Am]unintended [D]choice to live my [G]life extended
 
 [C]You could be the[B7] one i'll always [E]love
 
 [E]You could be the[Am] one who listens [D]to my deepest[G] inquisitions
 
 [C]You could be the[B7] one i'll always [E]love
 
 [E]I'll be there as[Am] soon as i can[D] but i'm busy[G] mending broken [C]pieces
 
 of the[B7] life i had be[E]fore
 
 [E]First there was the [Am]one who challenged al[D]l my dreams and [G]all my balance
 
 [C]She could never [B7]be as good as [E]you
 
 [E]You could be my [Am]unintended [D]choice to live my [G]life extended
 
 [C]You could be the[B7] one i'll always [E]love
 
 [E]I'll be there as[Am] soon as i can[D] but i'm busy[G] mending broken [C]pieces
 
 of the[B7] life i had be[E]fore , before you (play this part two times)
 
 Outro: Am - G - F - F - E (arpeggio again)
 :: Ultimate Guitar Archive ::
 http://www.ultimate-guitar.com