Song Information for Showbiz

Song Title:Showbiz
Artist:Muse
Hits:6
{t:Showbiz}
 {st:Muse}
 
 Tabbed by Benji
 
 (Best Muse song off the album :) )
 
 
 {sot}
 G -11-11-13-14-14b15b14-13-11-13b14b13-11-- Play twice
 G -11-11-11-11-11-11-11- Repeat as nessasary
 e -------------------------------------------------------------
 B -------------------------------------------------------------
 G -11-11-11-11-11-11-11--------------------11-11-11-11-11-11----
 D -x--x--x--x--x--x--x---------------------x--x--x--x--x--x----
 A -9--9--9--9--9--9--9----9-9-9-9-9-9-9----9--9--9--9--9--9---
 E ------------------------------------------------------------
 e ---8-----10----------
 B ---9-----11---------- (Arpeggio pickin' around these two chords
 G --10----12--------- can't be arsed tabbing it :)
 D --10----12---------
 A ---8----10---------
 E --------------------
 {eot}
 
 Riff A
 
 {sot}
 e ---------------------------------------
 B --------------------------------------
 G -11-11-13-14-16-14-13-11-13b14b13-11-----
 D -x--x--x-x--x--x--x--x--xxxxxxx--x-------- (Use the Wah-Wah pedal
 A -9-9--11-12-14-12-11-9- 15b16b15-9----- If u have one)
 E ------------------------------------------
 {eot}
 
 Riff B
 
 
 {sot}
 e ---------------------------------
 B ---------------------------------
 G -11---------13---------16-------
 D -x-----------x----------x------- (Play these chords
 A -9----------15---------14-------- listen to cd for rhyhm
 E --------------------------------- Repeat as needed)
 e --------
 B --------
 G -18-----
 D -xx----- Tremelo pickin'
 {eot}
 [A] [-16----] 
 
 {sot}
 E -------
 e ---------------
 B ----------------
 G -18-sl-11--------
 D -x-----x--------- (Repeat a few times
 A -16-sl-9--------- play this riff really quickly)
 E ----------------
 {eot}
 
 Play Riff A again
 Then
 Play Riff B again
 
 
 {sot}
 e ----------------------------------------------------------------------------
 B -------------------------19-21-22b23b22--------------------------------------
 G -11-11-13-14-16-18-19-22--x--x--xxxxxxx---------------------------------------
 D -x--x--x--x--x--x--x--x--16-18-19b20b19--16-18-19-21-19-18-16-18b19b18-16-----
 A -9--9--11-12-14-16-17-20------------------x--x--x--x--x--x--x--xxxxxxx--x-----
 E -----------------------------------------14-16-17-19-17-16-14-16b17b16-14-----
 {eot}
 
 Ending is just arpeggio pickin' around these two chords
 
 {sot}
 e ---8----10----------
 B ---9----11----------
 G --10----12---------
 D --10----12---------
 A ---8----10---------
 E --------------------
 {eot}
 
 Phew thats it (I hope) :P (And i know its a mess)
 
 E-mail me at benjamin_no1@hotmail.com
 for the starts of other Muse songs, still only
 Muscle Museam, Cave and Uno :(