Song Information for Cave

Song Title:Cave
Artist:Muse
Hits:17
{t:Cave}
 {st:Muse}
 
 Acoustic version of Cave by Muse. track can be downloaded from http://invictus.softmeg.com/
 under media downlaods and acoustics.
 any problems or whatever, email me on mr_claire@hotmail.com
 thanks
 
 Key = Dm
 
 CAPO FIRST FRET
 
 INTRO / VERSE
 
 guitar 1:
 
 [d] [d] [u] [d] [d] 
 {sot}
 |---------------------|
 |---------------------|
 |--2-2-2-2-2----------|
 |--0-0-0-3-0-------0--| repeat
 |--------------0-3----|
 |------------4--------|
 {eot}
 
 guitar 2: (comes in half way through intro)
 
 
 {sot}
 |------------1-1---------|
 |----------------3-3-----|
 |--1/2-2-2-2---------1-2-|
 |------------------------| repeat (combine notes on variation where neccesary)
 |------------------------|
 |------------------------|
 {eot}
 
 Then,
 Guitar 1:
 
 nothing to
 review...
 
 {sot}
 |------3-------3-------3-------3------3-------3-------3-------3--|
 |------3-------3-------3-------3------3-------3-------3-------3--|
 |----0-------0-------0-------0----0-0-------0-------0-------0----|
 |---------------------------------------0-3-----3-2-----0-1------|
 |----------0-----0-1-----1-3----3--------------------------------|
 |--3-----3-------------------------------------------------------|
 {eot}
 
 CHORUS
 ( Tab from: http://www.guitartabs.cc/tabs/m/muse/cave_acoustic_tab.html )
 Come in my
 Cave...
 
 {sot}
 |----------1-------------0---------------3-------------3--------|
 |------3-----3-------3-----3---3-----3-----3-------3-----3---3--|
 |----2---2-----2---2---2-----2-----3---3-----3---3---3-----3----|
 |--0------------------------------------------------------------|
 |---------------------------------------------------------------|
 |----------------2---------------3-------------3----------------|
 {eot}
 
 BRIDGE
 
 Guitar 1:
 
 
 {sot}
 |-----------------------------------|
 |----------------8---7--------------|
 |--7-7-7-7-7-7-7-7-7-7-7-7-9-7-9-7--|
 |--0-0-0-0-0-0-0-0-0-0-0-0-0-0-0-0--|
 |-----------------------------------|
 |-----------------------------------|
 |---------------------------------------------------|
 |---------------------------------------------------|
 |--9b10-------9b10-----9b10---9b10---9b10--9-7------|
 |--0----0-0-0-0----0-0-0----0-0----0-0-----0-0-0-0--|
 |---------------------------------------------------|
 |---------------------------------------------------|
 |---------------------------------------------------------------|
 |--7-------7-------------------6-------------6------------------|
 |--7---7---7---7---9-7-6---5---4-------4---------4--------------|
 |--0-0-0-0-0-0-0-0-0-0-0-0-0-0-0-0-0-0-0-0-0-0-0-0-0-0-0-0-0-0--|
 |---------------------------------------------------------------|
 |---------------------------------------------------------------|
 {eot}
 
 Guitar 2: (joins after repeats)
 
 you can work out the strumming pattern but just in case heres how many times you hit
 them (talking sraightforward beats, not with the pattern.)
 x16 x16 x8 x4 x2
 
 {sot}
 |--2-----1----5---5---4---3--| |---5---|
 |--3-----3----7---5---4---3--| |---6---|
 |--4-----3----7---6---5---4--| |---6---|
 |--4-----3----7---7---6---5--| End on: |---6---|
 |--2-----1----5---7---6---5--| |---5---|
 |--2-----1----5---5---4---3--| |---5---|
 {eot}