Song Information for Falling Down

Song Title:Falling Down
Artist:Muse
Hits:5
{t:Falling Down}
 {st:Muse}
 
 Tune ~1/4 step down.
 
 Intro/Outro/Verse Chords:
 
 [A] [A7] [Dsus2/F#] [Fmaj13] [E7] [Dsus2] 
 {sot}
 e|-0-| e|-0-| e|-0-| e|-0-| e|-0-| e|-0-|
 B|-2-| B|-2-| B|-3-| B|-3-| B|-3-| B|-3-|
 G|-2-| G|-0-| G|-2-| G|-2-| G|-1-| G|-2-|
 D|-2-| D|-2-| D|-4-| D|-3-| D|-2-| D|-0-|
 A|-0-| A|-0-| A|---| A|---| A|-2-| A|---|
 E|---| E|---| E|---| E|---| E|-0-| E|---|
 {eot}
 
 Chorus Chords:
 
 [F#m] [F] [A] [C#7] [D] [D#dim7] [E] 
 {sot}
 e|-2-| e|-1-| e|-0-| e|---| e|---| e|---| e|---|
 B|-2-| B|-1-| B|-2-| B|-2-| B|-7-| B|-7-| B|-9-|
 G|-2-| G|-2-| G|-2-| G|-4-| G|-7-| G|-5-| G|-9-|
 D|-4-| D|-3-| D|-2-| D|-3-| D|-7-| D|-7-| D|-9-|
 A|-4-| A|-3-| A|-0-| A|-4-| A|-5-| A|-6-| A|-7-|
 E|-2-| E|-1-| E|---| E|---| E|---| E|---| E|---|
 {eot}
 
 e|-[E7]7-| e|-[E7]10-|
 B|-9-| B|-9--|
 G|-7-| or G|-9--|
 D|-9-| D|-9--|
 A|-7-| A|-7--|
 
 {sot}
 E|---| E|----|
 {eot}
 
 ******************************************************************
 
 >Intro<
 
 [A] [A7] [Dsus2/F#] [Fmaj13] 
 {sot}
 e|-------------------------0-------0-------0---------------------|
 B|----2--2-------2b3r2-----3-3-------3-----3---------------------|
 G|----2----2-0---------0---2---2-------2---2---------------------|
 D|----2--------------------4-----4---------3---------------------|
 A|----0----------------------------------------------------------|
 E|---------------------------------------------------------------|
 {eot}
 
 [E7] [Dsus2] [A] 
 {sot}
 e|-----------------------------0---------------0-----0-----------|
 B|-------------------------------3-------3-------3---2-2------2--|
 G|---4b6r4-2---2---4b6---1-1-------1---2---2-----2---2---2------2|
 D|-----------4---4-------2---2---------0---------0---2-----2h4---|
 A|-----------------------2-------------0-------------0-----------|
 E|-----------------------0---------------------------------------|
 {eot}
 
 >Verse 1<
 
 [A]Fa- [A7]aaa- [Dsus2/F#]lling down[Fmaj13]
 
 
 {sot}
 e|--------------------------------|
 B|--------------------------------|
 G|--4b6r4---2--------2------4b6---|
 D|--------------4-------4---------|
 A|--------------------------------|
 E|--------------------------------|
 {eot}
 And fifteen thousand people scream
 
 [E7]They were all begging for your [Dsus2]dream[A]
 
 [A]And fa- [A7]aaa- [Dsus2/F#]lling down[Fmaj13]
 
 
 {sot}
 e|--------------------------------|
 B|--------------------------------|
 G|---4b6r4----2------2-------4b6--|
 D|---------------4------4---------|
 A|--------------------------------|
 E|--------------------------------|
 {eot}
 Five thousand houses burning down
 
 [E7]No one is gonna save this [Dsus2]town[A]
 
 >Chorus<
 
 [F#m]Too late, I already [F]found
 
 What I was loo- [A]ooking for[C#7]
 
 You know it waa- [D]aasn't here/you
 
 No- [D#dim7]oo, it waa- [E]aasn't here/y[E7]ou
 
 >Verse 2<
 I was calling your name
 But you would never hear me sing
 You wouldn't let me begin
 Now I'm crawling away
 'Cause you broke my heart in two, yeah
 No I will not forget you
 
 >Chorus<
 
 >Verse 3<
 Falling away
 You would never see me through
 No I cannot forget you
 Falling down
 A thousand houses burning down
 No one is gonna save this town, yeah
 
 >Chorus<
 
 >Outro<
 
 [A] [A7]Fa- lli- [Dsus2/F#]iing down[Fmaj13]
 
 
 {sot}
 e|--------------------------------|
 B|--------------------------------|
 G|--4b6-4---2--------2------4b6---|
 D|----------------4----4----------|
 A|--------------------------------|
 E|--------------------------------|
 {eot}
 And now the world is upside down
 
 Yeah[E7], I'm heading straight fo- [Dsus2]oor the clouds
 
 [A7] 
 {sot}
 e|-------5-|
 B|-----5---|
 G|-5h6-----|
 D|-5-------|
 A|-7-------|
 E|-5-------| 
 {eot}