Song Information for Muscle Museum

Song Title:Muscle Museum
Artist:Muse
Hits:5
{t:Muscle Museum}
 {st:Muse}
 
 Verse riffs:
 
 
 {sot}
 e|-------------------------------------------------------------------|
 B|-------------------------------------------------2-3---------------|
 G|-----------------------------------------------------4-------------|
 D|-4---4---4---4---------------------4---4---4---4-------4-------2-3-|
 A|---4---4---4---4--4---4---4---4------4---4---4-----------5-2-5-----|
 E|--------------------4---4---4---4----------------------------------|
 {eot}
 [F#m] [C#] [F#m] [Bm] 
 {sot}
 e|-------------------------------------------------------------------|
 B|-------------------------------------------------------------------|
 G|-------------------------------------------------------------------|
 D|-----7-7-----7-7-----7-7-----7-7--6-6-3-3--6-6-3-3--6-6-3-3--6-6-4-|
 A|-4-4-----4-4-----4-4-----4-4---------------------------------------|
 E|-------------------------------------------------------------------|
 {eot}
 
 Intro: F#m C# F#m Bm
 
 Verse 1:
 
 [F#m]She had something to conf[C#]ess to, but you don't have the [F#m]time so, look the other [Bm]way
 [F#m]You will wait until it's [C#]over, to reveal what you'd never [F#m]shown her, too little much too [Bm]late
 [F#m].........................[C#]................................[F#m]..............................[Bm]....
 [F#m]Too long trying to res[C#]ist it, you've just gone and [F#m]missed it, it's escaped your [Bm]world
 
 Chorus 1:
 
 [F#m] [G#] [D] 
 [F#m]Can you see that I am n[C#]eeding, begging for so [F#m]much more, than you could ever g[Bm]ive
 And [F#m]I don't want you to ad[C#]ore me, don't want you to ig[F#m]nore me, when it pleases [Bm]you
 And [E]I'll [Fm]do it on my ow[F#m]n......
 
 (intro riff)
 
 Verse 2:
 
 [F#m]I have played in every t[C#]oilet, but you still want to [F#m]spoil it, to prove I've made a [Bm]big mistake
 [F#m]Too long trying to res[C#]ist it, you've just gone and m[F#m]issed it, it's escaped your w[Bm]orld
 
 Chorus 2:
 
 [F#m] [G#] [D] 
 [F#m]Can you see that I am n[C#]eeding, begging for so [F#m]much more, than you could ever g[Bm]ive
 And [F#m]I don't want you to ad[C#]ore me, don't want you to ig[F#m]nore me, when it pleases [Bm]you
 And [E]I'll [Fm]do it on my ow[F#m]n......
 
 Outro:
 
 [F#m] [D] [E] [C#] 
 [F#m] [D] [A] [C#] 
 [F#m] [Bm] [F#m] [Bm] [F#m] [Bm] [F#m] [Bm] 
 [F#m] [Bm] [F#m] [Bm] [F#m] [Bm] [F#m] [Bm] 
 [F#m] 
 
 
 (end)