Song Information for Coma

Song Title:Coma
Artist:Misery Signals
Hits:211
{t:Coma}
 {st:Misery Signals}
 
 This is one of my first tabs so bare with me
 
 this is just the main riff played and the very beginning and at the end
 
 palm mute = .
 Slide up = /
 Slide down = \
 hammer on = h
 bend = b
 
 tuning: C Drop C
 [G] 
 [C] 
 [F] 
 [A] 
 [D] 
 Guitar 1
 
 
 {sot}
 C|----------------------------------------------------------------
 G|----------------------------------------------------------------
 C|--8------------8-------------8-------------8--------------------
 F|----7------------7-------------6-------------7------------------
 A|------6------6-----6------6------7------6------6-------6--------
 D|----------0------------0-------------0--------------0-----------
 {eot}
 
 Guitar 2
 
 
 {sot}
 C|-----------------------------------------------------------------|
 G|-----------------------------------------------------------------|
 C|-----------------------------------------------------------------|
 F|--15------15------15------15-------------21b22-------------------|
 A|------------------------------17--15/17--18----17\13--13h15------|
 D|------13------17------15-----------------------------------------|
 {eot}
 . . . .
 _____________________________________________________________________
 Guitar 1
 
 
 {sot}
 C|-----------------------------------------------------------------|
 G|-----------------------------------------------------------------|
 C|--8------------8------------8------------8-----------------------|
 F|----5---0--------5---0--------5---0--------5---0-----------------|
 A|------6-----8------6-----8------6-----8------6-----8-------------|
 D|----------5------------5------------5------------5---------------|
 {eot}
 . . . . . . . . . . . .
 
 Guitar 2
 
 
 {sot}
 C|-----------------------------------------------------------------------------|
 G|-----------------------------------------------------------------------------|
 C|-----------------------------------------------------------------------------|
 F|--9-10-9-10----10-9-10-9-10-9-10----10-9-10-9-10-9-10----10-9-10-9-10-9-10---|
 A|------------13-------------------13-------------------13---------------------|
 D|-----------------------------------------------------------------------------| 
 {eot}
 . . . . . . . . . . . . . . . . . . . . . . . . .