Song Information for Anchor

Song Title:Anchor
Artist:Misery Signals
Hits:147
{t:Anchor}
 {st:Misery Signals}
 
 
 {sot}
 ----------------------------------------------------------------------------
 {eot}
 Misery Signals
 Anchor Drop C (C,G,C,F,A,D)
 
 {sot}
 ----------------------------------------------------------------------------
 |---------------|
 |---------------|
 |--5--7---------|
 |--------7------|
 |---------------|
 |---------------|
 -------OR-------
 |----------------------|--12-12-12-12-12-12-12-12-|----------|
 |-------------13-------|--13-13-13-13-13-13-13-13-|----------|
 |----------------14----|--14-14-14-14-14-14-14-14-|-9-10-----|
 |-12----------------15-|--------------------------|-------10-|
 |---12--12-13----------|--------------------------|----------|
 |-----0----------------|--------------------------|----------|
 {eot}
 
 [1/2] [1/2] 
 {sot}
 |------------------------|-----------|------------|
 |-----10--10------10--10-|-----------|------------|
 |-----10--10------10--10-|-9-----9---|------------|
 |-8---8---8---8---8---8--|---0-----0-|------------|
 |-8-----------8----------|-7-0---7-0-|-0--0--0--0-|
 |-8-----------8----------|---0-----0-|-0--0--0--0-|
 |---------------------|---------------------|
 |-11-11-11-11---------|-11-11-11-11---------|
 |-14-14-14-14---------|-14-14-14-14---------|
 |---------------------|---------------------|
 |-------------0-0-0-0-|-------------0-0-0-0-|
 |-------------0-0-0-0-|-------------0-0-0-0-|
 |----------------------|--12-12-12-12-12-12-12-12-|----------|
 |-------------13-------|--13-13-13-13-13-13-13-13-|----------|
 |----------------14----|--14-14-14-14-14-14-14-14-|-9-10-----|
 |-12----------------15-|--------------------------|-------10-|
 |---12--12-13----------|--------------------------|----------|
 |-----0----------------|--------------------------|----------|
 {eot}
 
 [1/2] [1/2] 
 {sot}
 |------------------------|-----------|------------|
 |-----10--10------10--10-|-----------|------------|
 |-----10--10------10--10-|-9-----9---|------------|
 |-8---8---8---8---8---8--|---0-----0-|------------|
 |-8-----------8----------|-7-0---7-0-|-0--0--0--0-|
 |-8-----------8----------|---0-----0-|-0--0--0--0-|
 |---------------------|---------------------|-------------------------|
 |-11-11-11-11---------|-11-11-11-11---------|-11-11-11-11-11-11-11-11-|
 |-14-14-14-14---------|-14-14-14-14---------|-14-14-14-14-14-12-12-12-|
 |---------------------|---------------------|-------------------------|
 |-------------0-0-0-0-|-------------0-0-0-0-|-------------------------|
 |-------------0-0-0-0-|-------------0-0-0-0-|-------------------------|
 |----------|
 |----------|
 {eot}
 |-10\9-9-9-|
 
 {sot}
 |----------|
 {eot}
 |-8\\7-7-7-|
 
 {sot}
 |----------|
 |----------------|------------|-------------|
 |----------------|------------|-------------|
 |-9---9---9---9--|------------|-12-12-12-12-|
 |-10--10--10--10-|-8--8--8--8-|-------------|
 |-8---8---8---8--|-8--8--8--8-|-10-10-10-10-|
 |-8---8---8---8--|-8--8--8--8-|-------------|
 |------------|----------------------|----------------------|
 |------------|----------------------|----------------------|
 |------------|-9--9--9--9-----9--9--|-9--9-----9--9--9--9--|
 |-8--8--8--8-|-10-10-10-10----10-10-|-10-10----10-10-10-10-|
 |-8--8--8--8-|-8--8--8--8-----8--8--|-8--8-----8--8--8--8--|
 |-8--8--8--8-|-8--8--8--8-----8--8--|-8--8-----8--8--8--8--|
 |----------------------|--12-12-12-12-12-12-12-12-|----------|
 |-------------13-------|--13-13-13-13-13-13-13-13-|----------|
 |----------------14----|--14-14-14-14-14-14-14-14-|-9-10-----|
 |-12----------------15-|--------------------------|-------10-|
 |---12--12-13----------|--------------------------|----------|
 |-----0----------------|--------------------------|----------|
 |------------------------|-----------|------------|
 |-----10--10------10--10-|-----------|------------|
 |-----10--10------10--10-|-9-----9---|------------|
 |-8---8---8---8---8---8--|---0-----0-|------------|
 |-8-----------8----------|-7-0---7-0-|-0--0--0--0-|
 |-8-----------8----------|---0-----0-|-0--0--0--0-|
 |--------------------------------------------------|
 |-11-11-11-11-------------11//15-15-15-15-15-15-15-|
 |-14-14-14-14-------------14//18-18-18-18-18-18-18-|
 |--------------------------------------------------|
 |--------------0-0-0-0-----------------------------|
 |--------------0-0-0-0-----------------------------|
 |---------|----------------|----------------|
 |---------|----------------|----------------|
 |---------|----------------|----------------|
 |-0-0-0-0-|-0-0-0-0----0-0-|-0-0----0-0-0-0-|
 |-0-0-0-0-|-0-0-0-0----0-0-|-0-0----0-0-0-0-|
 |-0-0-0-0-|-0-0-0-0----0-0-|-0-0----0-0-0-0-|
 |-----------------|
 |------10------13-|
 |-9-10----9-10----|
 |-----------------|
 |-----------------| x12
 |-----------------|
 {eot}
 
 
 THEN THE BREAKDOWN LISTEN TO THE SONG FOR TIMING AND RYTHEM
 
 
 {sot}
 |-13-13-13---13---13-13-13-|-13-13-13-13-13-13----|
 |-11-11-11---11---11-11-11-|-11-11-11-11-11-11----|
 |-12-12-12---12---12-12-12-|-12-12-12-12-12-12----|
 |--------------------------|----------------------|
 |--------------------------|--------------------5-|
 |--------------------------|----------------------|
 |------------------------|-----12-12---12-12-12-12-|
 |------------------------|-----x--x----x--x--x--x--|
 |-10-10-10---10-10-10-10-|-10--9--9----9--9--9--9--|
 |------------------------|-----10-10---10-10-10-10-|
 |-8--8--8----8--8--8--8--|-8---8--8----8--8--8--8--|
 |------------------------|-------------------------|
 |---------------------------|-----------------------------|
 |---------------------------|-----------------------------|
 |-15-----15---15----15---15-|-15---15---15---14---14---14-|
 |-15-----15---15----15---15-|-15---15---15---15---15---15-|
 |-13-----13---13----13---13-|-13---13---13---13---13---13-|
 |---------------------------|-----------------------------|
 |----------------------|--12-12-12-12-12-12-12-12-|----------|
 |-------------13-------|--13-13-13-13-13-13-13-13-|----------|
 |----------------14----|--14-14-14-14-14-14-14-14-|-9-10-----|
 |-12----------------15-|--------------------------|-------10-|
 |---12--12-13----------|--------------------------|----------|
 |-----0----------------|--------------------------|----------|
 |------------------------|-----------|------------|
 |-----10--10------10--10-|-----------|------------|
 |-----10--10------10--10-|-9-----9---|------------|
 |-8---8---8---8---8---8--|---0-----0-|------------|
 |-8-----------8----------|-7-0---7-0-|-0--0--0--0-|
 |-8-----------8----------|---0-----0-|-0--0--0--0-|
 |---------------------|---------------------|
 |-11-11-11-11---------|-11-11-11-11---------|
 |-14-14-14-14---------|-14-14-14-14---------|
 |---------------------|---------------------|
 |-------------0-0-0-0-|-------------0-0-0-0-|
 |-------------0-0-0-0-|-------------0-0-0-0-|
 {eot}
 
 ( Tab from: http://www.guitartabs.cc/tabs/m/misery_signals/anchor_tab.html )
 
 {sot}
 |----------------------|--12-12-12-12-12-12-12-12-|----------|
 |-------------13-------|--13-13-13-13-13-13-13-13-|----------|
 |----------------14----|--14-14-14-14-14-14-14-14-|-9-10-----|
 |-12----------------15-|--------------------------|-------10-|
 |---12--12-13----------|--------------------------|----------|
 |-----0----------------|--------------------------|----------|
 |------------------------|-----------|------------|
 |-----10--10------10--10-|-----------|------------|
 |-----10--10------10--10-|-9-----9---|------------|
 |-8---8---8---8---8---8--|---0-----0-|------------|
 |-8-----------8----------|-7-0---7-0-|-0--0--0--0-|
 |-8-----------8----------|---0-----0-|-0--0--0--0-|
 |--------------------------------------------------|
 |-11-11-11-11-------------11//15-15-15-15-15-15-15-|
 |-14-14-14-14-------------14//18-18-18-18-18-18-18-|
 |--------------------------------------------------|
 |--------------0-0-0-0-----------------------------|
 |--------------0-0-0-0-----------------------------|
 {eot}
 
 
 THEN ANOTHER BREAKDOWN LISTEN TO THE SONG FOR RYTHEM AND TIMING
 
 
 {sot}
 |-----------------| |-------------|-------------|
 |------10------13-| |---6---6---6-|---6---6---6-|
 |-9-10----9-10----| |-9---9---9---|-9---9---9---|
 |-----------------| |-------------|-------------|
 |-----------------| x10 |-------------|-------------|
 |-----------------| |-------------|-------------|
 |-----------------|--------------|-----------------|-------------|
 |-----------------|--------------|-----------------|-------------|
 |-10-10-10--9-9-9-|-7-7-7--9-9-9-|-10-10-10--9-9-9-|-5-5-5-5-5-5-|
 |-----------------|--------------|-----------------|-------------|
 |-8--8--8---7-7-7-|-5-5-5--7-7-7-|-8--8--8---7-7-7-|-3-3-3-3-3-3-|
 |-----------------|--------------|-----------------|-------------|
 |-------------------|-----------------|-------------------|-------------|
 |---------10-10-----|--------10-10-10-|-------------------|-------------|
 |---------10-10-----|--------10-10-10-|-12-12-12-10-10-10-|-5-5-7-7-9-9-|
 |---------8--8------|--------8--8--8--|-------------------|-------------|
 |--8-8-8--------8-8-|-8-8-8-----------|-10-10-10-8--8--8--|-3-3-5-5-7-7-|
 |--8-8-8--------8-8-|-8-8-8-----------|-------------------|-------------|
 |-----------------|-------------|---------------|---------------|
 |-----------------|-------------|-------10-10---|-------10-10---|
 |-10-10-10--9-9-9-|-5-5-5-5-5-5-|-------10-10---|-------10-10---|
 |-----------------|-------------|-------8--8----|-------8--8----|
 |-8--8--8---7-7-7-|-3-3-3-3-3-3-|-8-8-8-------8-|-8-8-8-------8-|
 |-----------------|-------------|-8-8-8-------8-|-8-8-8-------8-|
 |-13-13---13-13-13-13-|-13-13-13-13-------|------------------------|
 |---------------------|-------------------|------------------------|
 |-12-12---12-12-12-12-|-12-12-12-12----12-|-10-10-10---10-10-10-10-|
 |---------------------|-------------------|------------------------|
 |-10-10---10-10-10-10-|-10-10-10-10----10-|-8--8---8---8--8--8--8--|
 |---------------------|-------------------|------------------------|
 |-------------------------|
 |-------------------------|
 |-10--9--9----9--9--9--9--|
 |-----10-10---10-10-10-10-|
 |-8---8--8----8--8--8--8--|
 |-------------------------|
 |-----------------------|-------------------|
 |-----------------------|-------------------|
 |-15-----15-15-15-15-15-|-14-14-14-14-14-14-|
 |-15-----15-15-15-15-15-|-15-15-15-15-15-15-|
 |-13-----13-13-13-13-13-|-13-13-13-13-13-13-|
 |-----------------------|-------------------|
 |-13-13-13----13----13-|-13--13----13--13-13-|---------------------|
 |----------------------|---------------------|---------------------|
 |-12-12-12----12----12-|-12--12----12--12-12-|-10-10---10-10-10-10-|
 |----------------------|---------------------|---------------------|
 |-10-10-10----10----10-|-10--10----10--10-10-|-8--8----8--8--8--8--|
 |----------------------|---------------------|---------------------|
 |-12-12-12-12-----12-|
 |--------------------|
 |-9--9--9--9------9--|
 |-10-10-10-10-----10-|
 |-8--8--8--8------8--|
 |--------------------|
 |------------------------|------------------------|-13----13-13-13-13-13-|
 |------------------------|------------------------|----------------------|
 |-15-15-15---15-15-15-15-|-15-14-14---14-14-14-14-|-12----12-12-12-12-12-|
 |-15-15-15---15-15-15-15-|-15-15-15---15-15-15-15-|----------------------|
 |-13-13-13---13-13-13-13-|-13-13-13---13-13-13-13-|-10----10-10-10-10-10-|
 |------------------------|------------------------|----------------------|
 |-13-13-13-13---13---13-|
 |-----------------------|
 |-12-12-12-12---12---12-|
 |-----------------------|
 |-10-10-10-10---10---10-|
 |-----------------------|
 |-------------12---12-|-12-12---12--12-12-|--------------------|
 |---------------------|-------------------|--------------------|
 |-10-10-10----9----9--|-9--9----9---9--9--|-15-15--15-15-15-15-|
 |-------------10---10-|-10-10---10--10-10-|-15-15--15-15-15-15-|
 |-8--8--8-----8----8--|-8--8----8---8--8--|-13-13--13-13-13-13-|
 |---------------------|-------------------|--------------------|
 |-------------------|
 |-------------------|
 |-14-14-14-14---14--|
 |-15-15-15-15---15--|
 |-13-13-13-13---13--|
 |-------------------|
 |-13-13-13-13-13-13-13-13-|-13-13-13-13-13-13-13-13-|
 |-------------------------|-------------------------|
 |-12-12-12-12-12-12-12-12-|-12-12-12-12-12-12-12-12-|
 |-------------------------|-------------------------|
 |-10-10-10-10-10-10-10-10-|-10-10-10-10-10-10-10-10-|
 |-------------------------|-------------------------|
 |-------------------------|-18-18-18-18-17-17-17-17-|
 |-------------------------|-------------------------|
 |-10-10-10-10-10-10-10-10-|-15-15-15-15-14-14-14-14-|
 |-------------------------|-------------------------|
 |-8--8--8--8--8--8--8--8--|-------------------------|
 |-------------------------|-------------------------|
 |---------------------------------|----------------------------------|
 |-15--15--15--15---17--17--17--17-|-18--18--18--18---20--20--20--20--|
 |---------------------------------|----------------------------------|
 |-12--12--12--12---14--14--14--14-|-15--15--15--15---17--17--17--17--|
 |---------------------------------|----------------------------------|
 |---------------------------------|----------------------------------|
 |-13-13-13-13-13-13-13-13-|-13-13-13-13-13-13-13-13-|
 |-------------------------|-------------------------|
 |-12-12-12-12-12-12-12-12-|-12-12-12-12-12-12-12-12-|
 |-------------------------|-------------------------|
 |-10-10-10-10-10-10-10-10-|-10-10-10-10-10-10-10-10-|
 |-------------------------|-------------------------|
 |-------------------------|-18-18-18-18-17-17-17-17-|
 |-------------------------|-------------------------|
 |-10-10-10-10-10-10-10-10-|-15-15-15-15-14-14-14-14-|
 |-------------------------|-------------------------|
 |-8--8--8--8--8--8--8--8--|-------------------------|
 |-------------------------|-------------------------|
 |---------------------------------|----------------------------------|
 |-15--15--15--15---17--17--17--17-|-18--18--18--18---20--20--20--20--|
 |---------------------------------|----------------------------------|
 |-12--12--12--12---14--14--14--14-|-15--15--15--15---17--17--17--17--|
 |---------------------------------|----------------------------------|
 |---------------------------------|----------------------------------|
 |----------------------|--------------------|
 |----------------------|--------------------|
 |-15--15---15-15-15-15-|-14-14-14-14-----14-|
 |-15--15---15-15-15-15-|-15-15-15-15-----15-|
 |-13--13---13-13-13-13-|-13-13-13-13-----13-|
 |----------------------|--------------------|
 {eot}