Song Information for La incondicional

Song Title:La incondicional
Artist:Miguel, Luis
Hits:9
{t:La incondicional}
 {st:Luis Miguel}
 
 INTRO= (Punteo en Guitarra)
 [D#] [A#] [G#] [D#] 
 {sot}
 E--15--13-----------------------16-----13-15--|
 B----------16-16--13-16-15---16----16---------|
 G---------------------------------------------|
 D---------------------------------------------|
 A---------------------------------------------|
 E---------------------------------------------|
 {eot}
 
 (Bajo) (este punteito se toca rpido)
 [G#] [A#] [D#] 
 {sot}
 G--12-13-12-------------|
 D----------13-----------|
 A------------13---------|
 E---------------13--11--|
 {eot}
 
 (Punteo en Guitarra)
 [D#] [A#] [G#] [D#] [A#] 
 {sot}
 E--3--1-------------------4----1-3-----------------|
 B-------4-4--1-4-3-----4-----4-------11>13--11-11--|
 G--------------------------------------------------|
 D--------------------------------------------------|
 A--------------------------------------------------|
 E--------------------------------------------------|
 {eot}
 
 =Estrofas=
 [D#]T, LA [Cm]MISMA SIEMPRE [A#]T, AMIS[Fm]TAD TER[A#]NURA QUE S [Cm]YO,
 [G#]T, MI SOMBRA HAS SIDO [D#]T, LA HIS[Cm]TORIA DE UN A[Fm]MOR...
 QUE NO FUE [A#]NADA...
 [D#]T, MI E[Cm]TERNAMENTE [A#]T, UN HO[Fm]TEL, TU [A#]CUERPO Y UN A[Cm]DIS,
 [G#]T, MI OCULTA AMIGA [D#]T, UN [Cm]GOLPE DE PA[Fm]SIN,
 AMOR DE [A#]MAAADRUUUGADA[Cm]AA...
 [Cm] NO EXISTE UN LAZO ENTRE [Gm]T Y YO,[Cm] NADA DE A[G#]MORES,
 [A#] NADA DE NADA...
 
 =CORO=
 [D#]T, LA MISMA DE A[A#]YER, LA INCONDICIO[Cm]NAL,
 [G#] LA QUE NO ES[A#]PERA NADA...
 [D#]T, LA MISMA DE A[A#]YER, LA QUE NO SUPE A[G#]MAR...
 [Fm]NO S POR [A#]QU...
 
 =Puente=
 [G#] [A#] [D#] 
 {sot}
 E-------8--6-------------|
 B-----9------9--8--6-----|
 G---8----------------8---|
 D------------------------|
 A------------------------|
 E------------------------|
 {eot}
 
 =Estrofas=
 [D#]T, IN[Cm]TENSAMENTE [A#]T, SOLE[Fm]DAD, CA[A#]RIO... YO QU [Cm]S,
 [G#]T, MIS HORAS BAJAS [D#]T, TU [Cm]CUERPO DE MU[Fm]JER,
 UN PAR DE [A#]ROSAS BLAAANCAAAA[Cm]AS...
 [Cm] NO EXISTE UN LAZO ENTRE [Gm]T Y YO,[Cm] NO HUBO PRO[G#]MESAS,
 [A#] NI JURAMENTOS,[C] NADA DE NADA...
 
 =CORO=
 [F]T, LA MISMA DE A[C]YER, LA INCONDICIO[Dm]NAL,
 [A#] LA QUE NO ES[C]PERA NADA...
 [F]T, LA MISMA DE A[C]YER, LA QUE NO SUPE A[A#]MAR...
 [Gm]NO S POR [C]QU... AMIGA...
 [F]T, LA MISMA DE A[C]YER, LA INCONDICIO[Dm]NAL,
 [A#] LA QUE NO ES[C]PERA NADA...
 [F]T, LA MISMA DE A[C]YER, LA QUE NO SUPE A[A#]MAAA[Gm]AAAAA[C]AR...
 [F]TUU...