Song Information for So Long Self

Song Title:So Long Self
Artist:MercyMe
Hits:97
{t:So Long Self}
 {st:MercyMe}
 
 Title: So Long Self
 Album: Coming Up To Breathe
 Artist: MercyMe
 
 Intro: (Ab Bb Gb)x2
 
 intro riff:
 [Ab] [Bb] [Gb] 
 {sot}
 e ------------------------------------------------------
 B -9---11-11-9---11-11-9--------------------------------
 G -x---x--x--x---x--x--x--10-10-8-----------------------
 D -6---8--8--6---8--8--6--x--x--x-----------------------
 A ------------------------8--8--6--3-4--4/8---9-8-6-4-3-
 E ------------------------------------------------------ 
 {eot}
 [Ab] [Bb] [Gb] 
 {sot}
 e -9-9-9-------------------------------------------
 B -x-x-x--11-11-9----------------------------------
 G -6-6-5--x--x--x--10-10-10------------------------
 D --------8--8--6--x--x--x-------------------------
 A -----------------8--8--6-------------------------
 E --------------------------3-4--4/8--9-8-9-11-11- 
 {eot}
 
 Verse 1: (Ab F Gb Bb)x4
 
 Chorus: (Ab Cm Gb Db)x3 Ab Gb Db
 
 repeat intro x1:
 [Ab] [Bb] [Gb] 
 {sot}
 e -9-9-9-------------------------------------------
 B -x-x-x--11-11-9----------------------------------
 G -6-6-5--x--x--x--10-10-10------------------------
 D --------8--8--6--x--x--x-------------------------
 A -----------------8--8--6-------------------------
 E --------------------------3-4--4/8--9-8-9-11-11- 
 {eot}
 
 Verse 2: repeat verse 1
 
 Repeat Chorus
 
 Bridge: (E Ab)x3 E Gb
 
 Solo: (Ab Bb Gb)x2
 
 solo tab:
 
 {sot}
 ~~~~~~~~~ (1/2 pitch) --------(hold bend)--------
 e ---------------------------------------------------------------------------
 B ---------------------------------------------------------------------------
 G -8-----------10-10b(11)-----pb10(11)-10(11)-10(11)-10(11)---10b(11)r-p8----
 D ------------------------------------------------------------------------11-
 A ---------------------------------------------------------------------------
 E ---------------------------------------------------------------------------
 e -------------------------------------------------------
 B ----9----9-------9-11-11b(13)r-p9----------------------
 G ---------------8-----------------10--------------------
 D -10---8-----6-----------------------------11-10-8-6----
 A ----------------------------------------------------6--
 E ------------------------------------------------------- 
 {eot}
 
 Repeat Chorus
 
 Ending: (Ab Gb Db)x4 then fade out on fourth time through
 
 x = mute string
 / = slide up
 = slide down
 b = bend
 r = release bend
 pb = pre bend
 p = pull off