Song Information for Bye Bye Blackbird

Song Title:Bye Bye Blackbird
Artist:McCartney, Paul
Hits:110
{t:Bye Bye Blackbird}
 {st:Paul McCartney}
 
 Tuning:EADGBE
 VERSE CHORD SHAPES
 Dm Faug Dm7 G9 Gm Cmaj7 Bbdim D5 C#7 Asus4 C5 C7 Bbm F C#7 C7
 
 {sot}
 e|--5--5----5---x--6--x-----6-----5--x---x-------3--6--6---5--x---x---|
 B|--6--6----6---10-8--5-----5-----5--6---3-------3--5--6---6--4---5---|
 G|--7--6----5---10-7--4-----6-----7--4---2-------5--5--6---5--6---3---|
 D|--7--7----7---9--8--5-----5-----7--6---2-------5--5--8---7--4---5---|
 A|--5--5----5---10-x--3-----x-----5--4---0-------3--x--8---8--6---3---|
 E|--5--x----x---10-x--x-----x-----0--x---x-------3--x--6---x--x---x---|
 {eot}
 CHORUS CHORD SHAPES
 F Fmaj7 Bb Gm7 C7 F#aug Am7b5 D#7 C#7
 
 {sot}
 e|-1--0-----1--3---3--2-----3-----x---4---|
 B|-1--1-----3--3---5--3-----1-----4---6---|
 G|-2--2-----3--3---3--3-----0-----6---4---|
 D|-3--3-----3--3---5--4-----1-----5---6---|
 A|-3--3-----1--5---3--x-----0-----6---4---|
 E|-1--1-----1--3---3--x-----x-----x---4---|
 {eot}
 
 VERSE 1
 Dm Faug Dm7 G9 Gm Cmaj7 Bbdim Dm D5
 Blackbird black - bird singing the blues all day
 [Gm]Right out-[C#7]side [A]my [Dm]door[D5][A7sus4][A7]
 
 Dm Faug Dm7 G9 Gm Cmaj7 Bbdim Dm D5
 Blackbird black-bird why do you sit and say
 [Gm]'There's no sun-[C#7]shine [A]in [Dm]store'? [D5]
 [C5]All through the [C7]winter you [Bb]hung [Bbm]a - [F]round
 [C5]Now I be-[C7]gin to feel [Bb]home[Bbm]ward [A7sus4]bound [A7]
 Dm Faug Dm7 G9 Gm Cmaj7 Bbdim Dm D5
 Blackbird black-bird gotta be on my way
 [G]Where there's [G7]sunshine ga[C7]lore.[C#7] [C7]
 CHORUS
 [F]Pack up [Fmaj7]all my [Bb]care and [F]woe, Here I [Gm7]go [C7]singing [F]low
 [F]Bye [Gm7]bye [C#7]black-[C7]bird [C#7][C7]
 Gm7 F#aug Bb C C7
 Where somebody waits for me, Sugar's sweet so is she
 [Gm7]Bye [C7]bye [F]blackbird[E][F]
 [Am7b5]No one here can love or under-[D#7]stand [D7]me
 [Gm7]Oh what hard luck stories they all [C#7]hand[C7] me
 [F]Make my [Fmaj7]bed and [Bb]light the [F]light, [Fmaj7]I'll a-[Gm7]rrive [D#7]late to[D7]night
 [Gm]Black[Gm7]bird [C] [C7]bye [F]bye.
 VERSE 2
 Dm Faug Dm7 G9 Gm Cmaj7 Bbdim Dm D5
 Blue-bird blue-bird calling me far a - way
 Gm C#7 A Dm D5 A7aug A7
 I've been longing for you
 Dm Faug Dm7 G9 Gm Cmaj7 Bbdim Dm D5
 Blue-bird blue-bird what do I hear you say?
 [Gm]'Skies are [C#7]turn-[A]ing [Dm]blue'[D5]
 [C5]I'm like a [C7]flower that's [Bb]fa - [Bbm]ding [F]here
 [C5]Where ev'ry [C7]hour is [Bb]one [Bbm]long [A7sus4]tear [A7]
 Dm Faug Dm7 G9 Gm Cmaj7 Bbdim Dm D5
 Blue-bird blue-bird this is my lu - cky day
 [G]Now my [G7]dreams will come [C7]true.[C#7] [C7]
 CHORUS - with this ending
 [F]Make my [Fmaj7]bed and [Bb]light the [F]light, [Fmaj7]I'll a-[Gm7]rrive [D#7]late [D7]tonight
 [Gm]Black[Gm7]bird [C] bye [A7]bye [D7] [Gm]Black[Gm7]bird [C] [C7]bye [F]bye.