Song Information for Sleep Is a Curse

Song Title:Sleep Is a Curse
Artist:maudlin of the Well
Hits:5
{t:Sleep Is a Curse}
 {st:maudlin of the Well}
 
 Notation: h = hammer-on
 p = pull-off
 >> = slide
 squiggly shit = strummed
 Intro:
 
 Guitar 1:
 1 2 3 4 1 2 3 4 1 2 3 4 1...
 
 {sot}
 E|----------------------------------------------------|
 B|0-------3---------------1---------------------------|
 G|0---------------2-----------------------0-----------|
 D|----------------4---------------2----------------0--|
 A|--------------------------------3---------------2---|
 E|------------------------------------------------3---|
 {eot}
 
 Guitar 2:
 1 2 3 4 1 2 3 4 1 2 3 4 1...
 
 {sot}
 E|--------------------------------------------0---0h3-|
 B|----0---3>>>5----3---0-------0---3------------------|
 G|0-----------------------2-----------0---------------|
 D|----------------------------------------2-----------|
 A|----------------------------------------------------|
 E|----------------------------------------------------|
 {eot}
 
 
 Verse 1:
 
 Guitar 1:
 [1] [2] [3] [4] [1] [2] [3] [4] [1] [2] [3] [4] [1] [2] [3] [4] 
 {sot}
 E|3-2-0---0-----------------------5---7-------7---7)--------------|
 B|------3---3-0---0---------------5---------------0(--------------|
 G|--------------2-------------------------4-------4)--------------|
 D|----------------------------------------------------------------|
 A|----------------------------------------------------------------|
 E|----------------------------------------------------------------| 
 {eot}
 Note: first note of guitar 1 (3rd fret
 on E string; G) is hammered on from
 2nd fret (F#), but there wasn't enough
 space given my unnecessarily strict
 rhythmic style of tablature to notate
 this :(
 
 [1] [2] [3] [4] [1] [2] [3] [4] [1] [2] [3] [4] [1] [2] [3] [4] 
 {sot}
 E|3>>>5---5-------0-------------------0---------------------------|
 B|3>>>5---5---------3-0---0-------3-----------0---3---------------|
 G|----------------------2-----------------2-----------------------|
 D|----------------------------------------------------------------|
 A|----------------------------------------------------------------|
 E|----------------------------------------------------------------| Repeat 4x
 {eot}
 
 Guitar 2:
 [1] [2] [3] [4] [1] [2] [3] [4] [1] [2] [3] [4] [1] [2] [3] [4] 
 {sot}
 E|----------------------------------------------------------------|
 B|--------------------------------0---------------1h3-----0-------|
 G|----------------0-----------------------2-------2---------------|
 D|2-------2-------2---------------2-------3---------------2-------|\
 A|--------2-------3-----------------------------------------------| \
 E|----------------------------------------------------------------| \
 {eot}
 \ A1
 [1] [2] [3] [4] [1] [2] [3] [4] [1] [2] [3] [4] [1] [2] [3] [4] [/] 
 {sot}
 E|----------------------------------------------------------------| /
 B|0---------------------------------------------------------------| /
 G|0-------2---------------------------------------0---------------|/
 D|2-------3-------0-------0-------0---2-----------2-------2h4p2---|
 A|------------------------0---------------0---2-------------------|
 E|----------------3-----------------------------------------------|
 {eot}
 
 [1] [2] [3] [4] [1] [2] [3] [4] [1] [2] [3] [4] [1] [2] [3] [4] 
 {sot}
 E|----------------------------------------------------------------|
 B|--------------------------------0---------------1h3-----0-------|
 G|----------------0-------0h2-0-----------2-------2---------------|
 D|2-------2-------2---------------2-------3---------------2-------|\
 A|--------2-------3-----------------------------------------------| \
 E|----------------------------------------------------------------| \
 {eot}
 \ A2
 [1] [2] [3] [4] [1] [2] [3] [4] [1] [2] [3] [4] [1] [2] [3] [4] [/] 
 {sot}
 E|----------------------------------------------------------------| /
 B|0---------------------------------------------------------------| /
 G|0-------2---------------------------------------0---------------|/
 D|2-------3-------0-------0-------0---2-----------2-------2h4p2---|
 A|------------------------0---------------0---2-------------------|
 E|----------------3-----------------------------------------------| Play A1, A2, A1, A2.
 {eot}
 
 
 Bridge:
 
 Guitar 1:
 
 [1] [2] [3] [4] [1] [2] [3] [4] [1] [2] [3] [4] [1] [2] [3] [4] 
 {sot}
 E|----------------------------------------------------------------|
 B|0-------3---------------1---------------------------------------|
 G|0---------------2-----------------------0-----------------------|
 D|----------------4---------------2----------------0--------------|
 A|--------------------------------3---------------2---------------|
 E|------------------------------------------------3---------------| x4
 {eot}
 
 Guitar 2:
 [1] [2] [3] [4] [1] [2] [3] [4] [1] [2] [3] [4] [1] [2] [3] [4] 
 {sot}
 E|----------------------------------------------------------------|
 B|----------------------------------------------------------------|
 G|--------------------------------2-------0h2-0-------------------|
 D|2-------0-------4-------4---------------------------0---2---4---|
 A|--------0-------2-----------3---3-------3-------2---------------|
 E|3-----------------------------------------------3---------------|
 {eot}
 
 [1] [2] [3] [4] [1] [2] [3] [4] [1] [2] [3] [4] [1] [2] [3] [4] 
 {sot}
 E|----------------------------------------------------------------|
 B|----------------------------------------------------------------|
 G|--------------------------------2-------0h2-0-------------------|
 D|2-------0-------4-------4---------------------------0---2---4---|
 A|--------0-------2-------2---3---3-------3-------2---------------|
 E|3-----------------------------------------------3---------------|
 {eot}
 
 [1] [2] [3] [4] [1] [2] [3] [4] [1] [2] [3] [4] [1] [2] [3] [4] 
 {sot}
 E|----------------------------------------------------------------|
 B|----------------------------------------3---1---0---------------|
 G|--------------------------------2-------------------2---0---4---|
 D|2-------0-------4-------4---------------------------------------|
 A|--------0-------2-------2---3---3-------3-----------------------|
 E|3-----------------------------------------------3---------------|
 {eot}
 
 [1] [2] [3] [4] [1] [2] [3] [4] [1] [2] [3] [4] [1] [2] [3] [4] 
 {sot}
 E|------------------------------------------------0---------------|
 B|----------------------------------------0h3-0-----------0-h-1---|
 G|--------------------------------2-------------------2-----------|
 D|2-------0-------4-------4---------------------------------------|
 A|--------0-------2-------2---3---3-------3-----------------------|
 E|3-----------------------------------------------3---------------|
 {eot}
 
 
 Verse 2:
 
 Guitar 1:
 
 [1] [2] [3] [4] [1] [2] [3] [4] [1] [2] [3] [4] [1] [2] [3] [4] 
 {sot}
 E|----------------------------------------------------------------|
 B|010-------------------------------------------------------------|
 G|----0---0-------------------------------------------------------|
 D|------4---------2-----------------------4-------4-------4-------|
 A|------------------------3-------2-----------2-------2-----------|
 E|--------------------0-------------------------------------------| x2
 {eot}
 
 [1] [2] [3] [4] [1] [2] [3] [4] [1] [2] [3] [4] [1] [2] [3] [4] 
 {sot}
 E|----------------------------------------------------------------|
 B|----010---------------------------------------------------------|
 G|--------0---0---------------------------------------------------|
 D|----------4-----2-----------------------4-------4-------4-------|
 A|------------------------3-------2-----------2-------2-----------|
 E|--------------------0-------------------------------------------|
 {eot}
 
 [1] [2] [3] [4] [1] [2] [3] [4] [1] [2] [3] [4] [1] [2] [3] [4] 
 {sot}
 E|----------------------------------------------------------------|
 B|0---------------------------------------------------------------|
 G|0---------------------------------------------------------------|
 D|2---------------------------------------------------------------|
 A|3---------------------------------------------------------------|
 E|----------------------------------------------------------------|
 {eot}
 
 
 Guitar 2:
 
 [1] [2] [3] [4] [1] [2] [3] [4] [1] [2] [3] [4] [1] [2] [3] [4] 
 {sot}
 E|----------------------------------------------------------------|
 B|----------------1-----------------------------------------------|
 G|2-------2-------------------------------------------------------|
 D|------------------------4-------2-------0-------4-------4-------|
 A|3-------3-------0-------0---0---2-------2-----------0---2>>>3---|
 E|------------------------------------------------2---------------| x3
 {eot}
 
 [1] [2] [3] [4] [1] [2] [3] [4] [1] [2] [3] [4] [1] [2] [3] [4] 
 {sot}
 E|----------------------------------------------------------------|
 B|0---------------------------------------------------------------|
 G|0---------------------------------------------------------------|
 D|2---------------------------------------------------------------|
 A|3---------------------------------------------------------------|
 E|----------------------------------------------------------------|
 {eot}