Song Information for Myself Again

Song Title:Myself Again
Artist:Matthews, Scott
Hits:9
{t:Myself Again}
 {st:Scott Matthews}
 
 
 {sot}
 -------------------------------------------------------------------------------
 {eot}
 Myself Again - Scott Matthews
 
 {sot}
 -------------------------------------------------------------------------------
 {eot}
 Tabbed by: Neil Wicker
 E-mail: wicker101@hotmail.co.uk
 
 Tuning: Standard
 
 Capo 3
 
 I added a few lyrics into the tab to make it easier to play and know where you are, the
 full lyrics are at the bottom.
 
 Intro:
 
 [ x6 ]
 
 {sot}
 e|----------------0---------|----------------------------|
 B|-10-----------------------|--10-------------10---------|
 G|----------0-----------0---|-----------0----------------|
 D|-------10----------10-----|--------10----------10------|
 A|-8-----------8------------|----------------------------|
 E|--------------------------|--10----------10------------|
 {eot}
 
 Verse:
 
 [F x4 ] [Am x4 ]
 
 {sot}
 e|--1------------------------|-0------------------------|
 B|-----------------1---------|----------------1---------|
 G|-----------2-----------2---|----------2-----------2---|
 D|--------3-----------3------|-------2-----------2------|
 A|---------------------------|-0-----------0------------|
 E|--1-----------1------------|--------------------------|
 {eot}
 
 morning arrives, realisation still inside, will I
 
 [ x4 ] [ x4 ]
 
 {sot}
 e|-----------------0---------|----------------3---------|
 B|--3------------------------|-5------------------------|
 G|-----------0-----------0---|----------4-----------4---|
 D|--------3-----------3------|-------5-----------5------|
 A|--1-----------1------------|-3-----------3------------|
 E|---------------------------|--------------------------|
 {eot}
 
 ever get back home, every feather floats alone
 
 [F x4 ] [Am x4 + variation > ] [on second Am repeat]
 
 {sot}
 e|--1------------------------|-0------------------------| e|--0---------------------|
 B|-----------------1---------|----------------1---------| B|------------------------|
 G|-----------2-----------2---|----------2-----------2---| G|-----------2-------0h2--|
 D|--------3-----------3------|-------2-----------2------| D|--------2-----0h2-------|
 A|---------------------------|-0-----------0------------| A|--0---------------------|
 E|--1-----------1------------|--------------------------| E|------------------------|
 {eot}
 
 [ x4 ] [ x4 ]
 
 {sot}
 e|-----------------0---------|----------------3---------|
 B|--3------------------------|-5------------------------|
 G|-----------0-----------0---|----------4-----------4---|
 D|--------3-----------3------|-------5-----------5------|
 A|--1-----------1------------|-3-----------3------------|
 E|---------------------------|--------------------------|
 {eot}
 
 
 Chorus:
 
 [ x4 ] [ x2 ]
 
 {sot}
 e|-----------------0---------|----------------3---------|
 B|--10-----------------------|-5------------------------|
 G|-----------0-----------0---|----------4-----------4---|
 D|--------10----------10-----|-------5-----------5------|
 A|--8-----------8------------|-3-----------3------------|
 E|---------------------------|--------------------------|
 {eot}
 
 oh why, oh why
 
 
 {sot}
 e|-----------------3---------|-----------------3--------|
 B|--6------------------------|--5-----------------------|
 G|-----------4-----------4---|-----------4-----------4--|
 D|--------5-----------5------|--------5-----------5-----|
 A|--3-----------3------------|--3-----------3-----------|
 E|---------------------------|--------------------------|
 {eot}
 
 [ x2 ]
 
 {sot}
 e|---------------------------|--------------------------|
 B|--6--------------6---------|--6--------------6--------|
 G|-----------0-----------0---|-----------0-----------0--|
 D|--------7-----------7------|--------7-----------7-----|
 A|--5-----------5------------|--------------------------|
 E|---------------------------|--6-----------6-----------|
 {eot}
 ..got in the end life to try and
 
 [ x2 ]
 
 {sot}
 e|--8------------------------|----------------0---------|
 B|-----------------6---------|-10-----------------------|
 G|-----------0-----------0---|----------0-----------0---|
 D|--------7-----------7------|-------10----------10-----|
 A|---------------------------|-8-----------8------------|
 E|--6-----------6------------|--------------------------|
 {eot}
 mend ..I need..
 
 [ x2 ]
 
 {sot}
 e|-----------------3---------|--------------------------|
 B|--5------------------------|--6--------------6--------|
 G|-----------4-----------4---|-----------0-----------0--|
 D|--------5-----------5------|--------7-----------7-----|
 A|--3-----------3------------|--5-----------5-----------|
 E|---------------------------|--------------------------|
 {eot}
 chance got in the
 
 
 {sot}
 e|---------------------------|--------------------------|
 B|--6--------------6---------|--6--------------6--------|
 G|-----------0-----------0---|-----------0-----------0--|
 D|--------7-----------7------|--------7-----------7-----|
 A|--4-----------4------------|--3-----------3-----------|
 E|---------------------------|--------------------------|
 {eot}
 end life
 
 
 {sot}
 e|---------------------------|--------------------------|
 B|--6--------------6---------|--6--------------6--------|
 G|-----------0-----------0---|-----------0-----------0--|
 D|--------7-----------7------|--------7-----------7-----|
 A|---------------------------|--------------------------|
 E|--7-----------7------------|--6-----------6-----------|
 {eot}
 
 mend
 
 
 {sot}
 e|---------------------------|----8---|
 B|--6--------------6---------|---6----|
 G|-----------0---------------|--0-----|
 D|--------7-----------7------|--------|
 A|---------------------------|--------|
 E|--6-----------6------------|--------|
 {eot}
 
 intro
 verse
 chorus
 
 Bridge:
 
 [ x4 ]
 
 {sot}
 e|-----------------3---------|--------------------------|
 B|--5------------------------|--6--------------6--------|
 G|-----------4-----------4---|-----------0-----------0--|
 D|--------5-----------5------|--------7-----------7-----|
 A|--3-----------3------------|--5-----------5-----------|
 E|---------------------------|--------------------------|
 e|---------------------------|--------------------------|
 B|--6--------------6---------|--6--------------6--------|
 G|-----------0-----------0---|-----------0-----------0--|
 D|--------7-----------7------|--------7-----------7-----|
 A|--4-----------4------------|--3-----------3-----------|
 E|---------------------------|--------------------------|
 e|---------------------------|--------------------------|
 B|--6--------------6---------|--6--------------6--------|
 G|-----------0-----------0---|-----------0-----------0--|
 D|--------7-----------7------|--------7-----------7-----|
 A|---------------------------|--------------------------|
 E|--7-----------7------------|--6-----------6-----------|
 e|---------------------------|--8p0------------8--------|
 B|--6--------------6---------|-----------6--------------|
 G|-----------0---------------|--------------------------|
 D|--------7-----------7------|--------7-----------7-----|
 A|---------------------------|--------------------------|
 E|--6-----------6------------|--6-----------6-----------|
 e|--8p0------------8--------|
 B|-----------6--------------|
 G|--------------------------|
 D|--------7-----------7-----|
 A|--------------------------|
 E|--6-----------6-----------|
 {eot}
 
 [---] 
 
 {sot}
 e|--------------------------|
 B|--6--------------6--------|
 G|-----------0-----------0--|
 D|--------7-----------7-----|
 A|--5-----------5-----------|
 E|--------------------------|
 e|---------------------------|--------------------------|
 B|--6--------------6---------|--6--------------6--------|
 G|-----------0-----------0---|-----------0-----------0--|
 D|--------7-----------7------|--------7-----------7-----|
 A|--4-----------4------------|--3-----------3-----------|
 E|---------------------------|--------------------------|
 {eot}
 [ x4 ]
 
 {sot}
 e|---------------------------|--------------------------|
 B|--6--------------6---------|--6--------------6--------|
 G|-----------0-----------0---|-----------0-----------0--|
 D|--------7-----------7------|--------7-----------7-----|
 A|---------------------------|--------------------------|
 E|--7-----------7------------|--6-----------6-----------|
 {eot}
 
 [---] 
 [ x2 ] [ x2 ]
 
 {sot}
 e|-----------------0---------|----------------3---------|
 B|--3------------------------|-5------------------------|
 G|-----------0-----------0---|----------4-----------4---|
 D|--------3-----------3------|-------5-----------5------|
 A|--1-----------1------------|-3-----------3------------|
 E|---------------------------|--------------------------|
 {eot}
 
 repeat these 2 bars 4 times for the "I wanna be..." section.
 
 ending:
 
 
 {sot}
 e|----------------0---------|---------------------------|
 B|-10-----------------------|--8-------------8----------|
 G|----------0-----------0---|-----------0---------------|
 D|-------10----------10-----|--------8----------8-------|
 A|-8-----------8------------|--6----------6-------------|
 E|--------------------------|---------------------------|
 {eot}
 
 end on F
 
 Verse:
 The morning arrives,
 Realisation still inside.
 Will I ever get back home?
 Every feather floats alone.
 
 Verse:
 Day after day,
 The clock is ticking and winding away.
 Where are you tonight?
 I can still hear the chimes.
 
 Chorus:
 Oh, why, oh why.
 What I've got in the end
 Is a life to try and mend
 And all I need is a chance to be myself again.
 What I've got in the end
 Is a life to try and mend
 And all I need
 Is to be myself again.
 
 Verse:
 I cry to the sound
 Of a place I should be around.
 Oh that endless rage inside of me,
 Will I ever rest in peace?
 You all seem so blind,
 Yet the truth hangs between your eyes.
 Please help me come through
 And I'll come back to you.
 
 Chorus:
 Oh, why, oh why.
 What I've got in the end
 Is a life to try and mend
 And all I need is a chance to be myself again.
 What I've got in the end
 Is a life to try and mend
 And all I need
 Is to be myself again.
 
 Bridge:
 I'm just a feather that floats all alone, I am scared.
 Falling unknown, disappear like a breath in the air.
 
 Oh, be.
 Oh, be.
 Oh, be myself again.
 Legend
 h - hammer on/pull off