Song Information for Belly Full

Song Title:Belly Full
Artist:Matthews, Dave, Band
Hits:17
{t:Belly Full}
 {st:Dave Matthews Band}
 
 
 {sot}
 -------------------------------------------------------------------------------
 {eot}
 Belly Full - Dave Matthews Band
 
 {sot}
 -------------------------------------------------------------------------------
 {eot}
 Tabbed by: M Silvey
 E-mail: ATiger579304@gmail.com
 
 This is my first tab, and I think it is pretty close to correct. Feel free
 to correct me. We all learn best from our mistakes.
 
 This is a great starter song. Capo is not required, but it helps if you
 are listening to the song to learn it. It is basically strumming with a
 bass line. I use my thumb for the bass, and pointer for the strum.
 One day I will try to use a pick. Nahhh. Probably Not! Enjoy!
 
 Tuning: Standard (Capo on 4/chords relative)
 
 Intro
 [C] 
 {sot}
 e|-------------------------------------|-------------------------------------|
 B|-------1---1--1-----------1---1--1---|------1---1--1-----------1---1--1----|
 G|-------0---0--0-----------0---0--0---|------0---0--0-----------0---0--0----|
 D|-------2---2--2-----------2---2--2---|------2---2--2-----------2---2--2----|
 A|----3--3---3--3-------3---3---3--3---|---3--3---3--3--------3--3---3--3----|
 E|-------------------------------------|-------------------------------------|
 {eot}
 Ohhhhhhh my love If I
 [F] 
 {sot}
 e|--------------------------1---1--1---|------1---1--1-----------1---1--1----|
 B|-------1---1--1-----------1---1--1---|------1---1--1-----------1---1--1----|
 G|-------0---0--0-----------2---2--2---|------2---2--2-----------2---2--2----|
 D|-------2---2--2-----------3---3--3---|------3---3--3-----------3---3--3----|
 A|----3--3---3--3----2-3----3---3--3---|------3---3--3-----------3---3--3----|
 E|-----------------------1--1---1--1---|---1--1---1--1--------1--1---1--1----|
 {eot}
 had my way, then all your dreams
 [G] 
 {sot}
 e|-------3---3--3-----------3---3--3---|------3---3--3-----------3---3--3----|
 B|-------3---3--3-----------3---3--3---|------3---3--3-----------3---3--3----|
 G|---h---0---0--0-----------0---0--0---|------0---0--0-----------0---0--0----|
 D|-0-2-0-0---0--0----3-2-0--0---0--0---|------0---0--0-----------0---0--0----|
 A|-------2---2--2-----------2---2--2---|------2---2--2-----------2---2--2----|
 E|-------3---3--3-----------3---3--3---|---3--3---3--3--------3--3---3--3----|
 {eot}
 would come true. Oh my love All
 [C] [F] 
 {sot}
 e|--------------------------1---1--1---|------1---1--1-----------1---1--1----|
 B|-------1---1--1-----------1---1--1---|------1---1--1-----------1---1--1----|
 G|-------0---0--0-----------2---2--2---|------2---2--2-----------2---2--2----|
 D|-------2---2--2-----------3---3--3---|------3---3--3-----------3---3--3----|
 A|--2-3--3---3--3----2-3----3---3--3---|------3---3--3-----------3---3--3----|
 E|-----------------------1--1---1--1---|---1--1---1--1--------1--1---1--1----|
 {eot}
 your dreams, and all the world
 [G] 
 {sot}
 e|-------3---3--3-----------3---3--3---|------3---3--3-----------3---3--3----|
 B|-------3---3--3-----------3---3--3---|------3---3--3-----------3---3--3----|
 G|---h---0---0--0-----------0---0--0---|------0---0--0-----------0---0--0----|
 D|-0-2-0-0---0--0----3-2-0--0---0--0---|------0---0--0-----------0---0--0----|
 A|-------2---2--2-----------2---2--2---|------2---2--2-----------2---2--2----|
 E|-------3---3--3-----------3---3--3---|---3--3---3--3--------3--3---3--3----|
 {eot}
 Just for you. Oh my love If I
 [C] [F] 
 {sot}
 e|--------------------------1---1--1---|------1---1--1-----------1---1--1----|
 B|-------1---1--1-----------1---1--1---|------1---1--1-----------1---1--1----|
 G|-------0---0--0-----------2---2--2---|------2---2--2-----------2---2--2----|
 D|-------2---2--2-----------3---3--3---|------3---3--3-----------3---3--3----|
 A|--2-3--3---3--3----2-3----3---3--3---|------3---3--3-----------3---3--3----|
 E|-----------------------1--1---1--1---|---1--1---1--1--------1--1---1--1----|
 {eot}
 had my way
 [G] 
 {sot}
 e|-------3---3--3-----------3---3--3---|------3---3--3-----------3---3--3----|
 B|-------3---3--3-----------3---3--3---|------3---3--3-----------3---3--3----|
 G|-------0---0--0-----------0---0--0---|------0---0--0-----------0---0--0----|
 D|-3-2-0-0---0--0-----------0---0--0---|------0---0--0-----------0---0--0----|
 A|-------2---2--2-----------2---2--2---|------2---2--2-----------2---2--2----|
 E|-------3---3--3--------3--3---3--3---|---3--3---3--3--------3--3---3--3----|
 {eot}
 This for you.
 [C] 
 {sot}
 e|-------------------------------------|-------------------------------------|
 B|-------1---1--1-----------1---1--1---|------1---1--1-----------1---1--1----|
 G|-------0---0--0-----------0---0--0---|------0---0--0-----------0---0--0----|
 D|-------2---2--2-----------2---2--2---|------2---2--2-----------2---2--2----|
 A|--2-3--3---3--3-------3---3---3--3---|---3--3---3--3--------3--3---3--3----|
 E|-------------------------------------|-------------------------------------|
 {eot}
 Spread yourself across my lips, and I spoon you in The sweetest
 [Am] [Em] [G] 
 {sot}
 e|-------------------------------------|-------------------------3---3--3----|
 B|-------1---1--1-----------1---1--1---|-------------------------3---3--3----|
 G|-------2---2--2-----------2---2--2---|------0---0--0-----------0---0--0----|
 D|-------2---2--2-----------2---2--2---|------2---2--2-----------0---0--0----|
 A|----0--0---0--0-------0---0---0--0---|------2---2--2-----------2---2--2----|
 E|-------------------------------------|---0--------------0-1-3--3---3--3----|
 {eot}
 thing in all the world. Ohhhh, I want more. There is no place
 [G] [C] [Cmaj9] [Am] 
 {sot}
 e|-------3---3--3----------------------|-------------------------------------|
 B|-------3---3--3-----------1---1--1---|------1---1--1-----------1---1--1----|
 G|-------0---0--0-----------0---0--0---|------0---0--0-----------2---2--2----|
 D|-------0---0--0-----------2---2--2---|------0---0--0-----------2---2--2----|
 A|-------2---2--2--------3--3---3--3---|---2--2---2--2--------0--0---0--0----|
 E|----3--3---3--3----------------------|-------------------------------------|
 {eot}
 I'd rather be than here with you. Under the sun or pouring rain
 [Em] [G] 
 {sot}
 e|-------------------------------------|--------3---3--3---------3---3--3----|
 B|-------1---1--1----------------------|--------3---3--3---------3---3--3----|
 G|-------2---2--2-----------0---0--0---|--------0---0--0---------0---0--0----|
 D|-------2---2--2-----------2---2--2---|--------0---0--0---------0---0--0----|
 A|----0--0---0--0-----------2---2--2---|--------2---2--2---------2---2--2----|
 E|----------------------0--------------|-0-1-3--3---3--3------3--3---3--3----|
 {eot}
 All of the sky for you Oh my love If I
 [C] [F] 
 {sot}
 e|-------3---3--3----------------------|--------1---1--1---------1---1--1----|
 B|-------3---3--3-----------1---1--1---|--------1---1--1---------1---1--1----|
 G|-------0---0--0-----------0---0--0---|--------2---2--2---------2---2--2----|
 D|-------0---0--0-----------2---2--2---|--------3---3--3---------3---3--3----|
 A|-------2---2--2-------2-3-3---3--3---|-2-3----3---3--3---------3---3--3----|
 E|----3--3---3--3-----3----------------|-----1--1---1--1------1--1---1--1----|
 {eot}
 had my way
 [G] 
 {sot}
 e|-------3---3--3-----------3---3--3---|------3---3--3-----------3---3--3----|
 B|-------3---3--3-----------3---3--3---|------3---3--3-----------3---3--3----|
 G|-------0---0--0-----------0---0--0---|------0---0--0-----------0---0--0----|
 D|-3-2-0-0---0--0-----------0---0--0---|------0---0--0-----------0---0--0----|
 A|-------2---2--2-----------2---2--2---|------2---2--2-----------2---2--2----|
 E|-------3---3--3--------3--3---3--3---|---3--3---3--3--------3--3---3--3----|
 {eot}
 This for you. Oh my love Make your
 [C] [F] 
 {sot}
 e|--------------------------1---1--1---|------1---1--1-----------1---1--1----|
 B|-------1---1--1-----------1---1--1---|------1---1--1-----------1---1--1----|
 G|-------0---0--0-----------2---2--2---|------2---2--2-----------2---2--2----|
 D|-------2---2--2-----------3---3--3---|------3---3--3-----------3---3--3----|
 A|--2-3--3---3--3----2-3----3---3--3---|------3---3--3-----------3---3--3----|
 E|-----------------------1--1---1--1---|---1--1---1--1--------1--1---1--1----|
 {eot}
 belly full, and all your dreams
 [G] 
 {sot}
 e|-------3---3--3-----------3---3--3---|------3---3--3-----------3---3--3----|
 B|-------3---3--3-----------3---3--3---|------3---3--3-----------3---3--3----|
 G|---h---0---0--0-----------0---0--0---|------0---0--0-----------0---0--0----|
 D|-0-2-0-0---0--0----3-2-0--0---0--0---|------0---0--0-----------0---0--0----|
 A|-------2---2--2-----------2---2--2---|------2---2--2-----------2---2--2----|
 E|-------3---3--3-----------3---3--3---|---3--3---3--3--------3--3---3--3----|
 {eot}
 Come true.
 [C] 
 {sot}
 e|-------------------------------------|-------------------------------------|
 B|-------1---1--1-----------1---1--1---|------1---1--1----------1------------|
 G|-------0---0--0-----------0---0--0---|------0---0--0----------0------------|
 D|-------2---2--2-----------2---2--2---|------2---2--2----------2------------|
 A|--2-3--3---3--3-------3---3---3--3---|---3--3---3--3----------3------------|
 E|-------------------------------------|-------------------------------------|
 {eot}
 ************************************
 
 | / slide up
 | \ slide down
 | h hammer-on
 | p pull-off
 | ~ vibrato
 | + harmonic
 | x Mute note
 | b Bend
 | pb Pre-bend
 | br Bend release
 | pbr Pre-bend release
 | brb Bend release bend
 
 ************************************