Song Information for You Might Die Trying

Song Title:You Might Die Trying
Artist:Matthews, Dave, Band
Hits:9
{t:You Might Die Trying}
 {st:Dave Matthews Band}
 
 
 {sot}
 -------------------------------------------------------------------------------
 {eot}
 You Might Die Trying - Dave Matthews Band
 
 {sot}
 -------------------------------------------------------------------------------
 {eot}
 Tabbed by:Deius
 Email: maker1127@yahoo.com
 
 
 Tuning: Drop D Tuning, no capo
 
 I think that we're all making this harder than it is. If you've been to a show
 and seen the man play, you know that if it sounds simple on the CD, it's simple
 for a reason (He likes to get into it live without worrying about fingerings).
 That being said this is my take on this song. Simplicity is the key. Have fun with it!!
 
 Intro, verse, Chorus
 
 To change the world...
 
 
 {sot}
 e|---------------------------------------------------------------------------|
 B|---------------------------------------------------------------------------|
 G|---------------------------------------------------------------------------|
 D|---3---5---7---------------------------------------------------------------|
 A|---5---5---5---3-----------------------------------------------------------|
 D|---------------3-----------------------------------------------------------|
 {eot}
 
 Variations on the strumming (palm muting, syncopations) make this awesome.
 Play with it some.
 
 Bridge
 
 If you give....
 
 
 {sot}
 e|---------------------------------------------------------------------------|
 B|---------------------------------------------------------------------------|
 G|---------------------------------------------------------------------------|
 D|--5----3-------------------------------------------------------------------|
 A|--5----1----3--------------------------------------------------------------|
 D|------------3--------------------------------------------------------------|
 {eot}
 
 Last time goes back into first part
 
 Outro
 
 I don't believe Dave plays the outro. It sounds like Boyd plucking on the violin.
 This song is one of the songs I intend to pay special attention to this summer when
 I go to their shows. But if it is Dave playing, I believe his part in the outro goes
 like this....
 
 
 {sot}
 e|--------------|-------------------------------------------------------------|
 B|--------------|---------8--10--8-------------------8--10--8-----------------|
 G|---7----10----|---7--10-----------10--7--10--7--10----------10--7--10--7----|
 D|--------------|-------------------------------------------------------------|
 A|---5----8-----|-------------------------------------------------------------|
 D|--------------|-------------------------------------------------------------|
 {eot}
 [1] [4] [2] [4] 
 
 {sot}
 e|--10--8----------------------------------10-8------------------------------|
 B|--------11-10-8-10-8-------------------------------------------------------|
 G|---------------------10-7-7-10-7-10-10-7---------(repeat w/o chords)-------|
 D|---------------------------------------------------------------------------|
 A|---------------------------------------------------------------------------|
 D|---------------------------------------------------------------------------|
 {eot}
 
 As the song fades the picked part changes....improv at its best. Just jam with the outro.
 Have fun everybody!!