Song Information for Old Dirt Hill (Bring That Beat Back)

Song Title:Old Dirt Hill (Bring That Beat Back)
Artist:Matthews, Dave, Band
Hits:10
{t:Old Dirt Hill (Bring That Beat Back)}
 {st:Dave Matthews Band}
 
 
 {sot}
 -------------------------------------------------------------------------------
 {eot}
 Old Dirt Hill (Bring That Beat Back) - Dave Matthews Band
 
 {sot}
 -------------------------------------------------------------------------------
 {eot}
 Tabbed by:Espen Rian Skog
 Email:Espenskog@gmail.com
 
 Tuning:EADGBE(Standard)
 
 Violin Plays this:
 (transcribed for guitar)
 
 {sot}
 e|---------------------------------------------------------------------------|
 B|--3-3-3-3-5-5-5-3-3---3-3-3-3-3-3-3-3-3-3----------------------------------|
 G|--0-2-4-0-5-5-5-4-2---4-4-4-2-0-2-2-2-0-2----------------------------------|
 D|---------------------------------------------------------------------------|
 A|---------------------------------------------------------------------------|
 E|---------------------------------------------------------------------------|
 {eot}
 
 Dave plays this.Listen for strumming.
 Dave does not play the part that ends on a D-chord,
 but it sounds fuller if you're playing alone
 [G] [C] [G] [D] 
 {sot}
 e|--3-----|--3---2--|--------------------------------------------------------|
 B|--3---5-|--3---3--|--------------------------------------------------------|
 G|--4---5-|--4---2--|--------------------------------------------------------|
 D|--5---5-|--5---0--|--------------------------------------------------------|
 A|--------|---------|--------------------------------------------------------|
 E|--------|---------|--------------------------------------------------------|
 {eot}
 
 There are numrous tiny variations to the verse chords, here are a few:
 
 0:44 1:42
 
 {sot}
 e|------3-----------3--------------------------------------------------------|
 B|------3h5p3-5-----3--3------3----------------------------------------------|
 G|------4-----------4----4/5-------------------------------------------------|
 D|------5-----------5--------------------------------------------------------|
 A|---------------------------------------------------------------------------|
 E|---------------------------------------------------------------------------|
 {eot}
 
 1:58 2:40
 
 {sot}
 e|--3-------------------------------------------3----------------------------|
 B|--3-3-----3------3---------3---3-3--3----3----3----------------------------|
 G|--4---4/5---4/5-----5\4----7-7---7--7\5--5\4--4----------------------------|
 D|--5-------------------------------------------5----------------------------|
 A|---------------------------------------------------------------------------|
 E|---------------------------------------------------------------------------|
 {eot}
 
 3:40
 
 {sot}
 e|-----------------3---------------------------------------------------------|
 B|--3--------------3---------------------------------------------------------|
 G|--7\5-5-4-5-4-2--4---------------------------------------------------------|
 D|-----------------5---------------------------------------------------------|
 A|---------------------------------------------------------------------------|
 E|---------------------------------------------------------------------------|
 {eot}
 
 Chorus: "scream and shout"
 [Cm] [G] 
 {sot}
 e|--3----3-------------------------------------------------------------------|
 B|--4----3-------------------------------------------------------------------|
 G|--5----4-------------------------------------------------------------------|
 D|--5----5-------------------------------------------------------------------|
 A|--3------------------------------------------------------------------------|
 E|---------------------------------------------------------------------------|
 {eot}
 
 Bridge:
 
 
 {sot}
 e|------------------------3--2-----------------------------------------------|
 B|--5--4--3--3--1--5--4---3--3-----------------------------------------------|
 G|--5--5--0--3--0--5--3---2--2-----------------------------------------------|
 D|--5--5--0--0--2--5--1---0--0-----------------------------------------------|
 A|--3--3--2--1--0--3---------------------------------------------------------|
 E|---------------------------------------------------------------------------|
 {eot}
 
 Yup..once again, Dave rules..
 If anyone have vids songs from the new album, let me know..
 Other than that..questions/corrections? mail me.
 Good luck!
 
 | / slide up
 | \ slide down
 | h hammer-on
 | p pull-off
 | ~ vibrato
 | + harmonic
 | x Mute note
 ===============================================================================