Song Information for Captain

Song Title:Captain
Artist:Matthews, Dave, Band
Hits:17
{t:Captain}
 {st:Dave Matthews Band}
 
 Band:Dave Matthews Band
 Song:Captain
 
 Verse
 This whole section is a HUGE stretch, it hurts, but it's how Dave plays it
 Listen to song for rhythm, he plays this once and then again at half speed
 
 {sot}
 E:-------------------|
 B:-4-----------------|
 G:-1----4----7----6--|
 D:-2----1----4----2--|
 A:-4----2----5----4--|
 E:------4----7----5--|
 {eot}
 
 Lead Into "Roll me back again..." from Verse
 
 {sot}
 E:------------------------|
 B:-4--------------2-------|
 G:-1----4----7----2----1--|
 D:-2----1----4----2----2--|
 A:-4----2----5----0----2--|
 E:------4----7------------|
 {eot}
 [1] 
 "Roll me back again..."
 
 {sot}
 E:---------------|
 B:--------2------|
 G:-4---3--2---1--|
 D:-x---x--2---2--|
 A:-2---1--0---2--|
 E:---------------|
 {eot}
 [1] 
 "...I'm coming back again"
 
 {sot}
 E:----------------------------------3-3--|
 B:-4--------------------5---------1-0-0--|
 G:-1----4----7----7-----6----5----x-0-0--|
 D:-2----1----4----6-----6----x----2-0-0--|
 A:-4----2----5----5-----4----3----3-2-2--|
 E:------4----7----4-----------------3-3--|
 {eot}
 
 "Why should I..."
 
 {sot}
 E:---------------------|
 B:---------------------|
 G:---------------------|
 D:-6----6----6-- 
 {eot}