Song Information for Busted Stuff

Song Title:Busted Stuff
Artist:Matthews, Dave, Band
Hits:16
{t:Busted Stuff}
 {st:Dave Matthews Band}
 
 Author/Artist: Dave Matthews Band
 Title: Busted Stuff
 Album: Busted Stuff
 Tuning: Standard
 Transcribed by: Adam Strachn
 Email: CookieMonster912@hotmail.com
 
 I tried to make this as accurate as possible.
 As with most of Dave's songs rhythm is very critical!
 
 Intro/Verse
 
 {sot}
 -------------|--------------|---------------------------|
 -------------|--------------|---------------------------|
 -0---0-------|--0---0-------|--0---0---0-----------0-0--|
 -0h2-0----0--|--0h2-0----4--|--0h2-0---2--4--4--2--0-0--|
 -3--------2--|--3--------5--|--3-------3--5--5--3--2-2--|
 ----------3--|-----------5--|-------------2--5--5--3-3--|
 {eot}
 
 Chorus – (strum)
 
 {sot}
 ---------------|---------------|
 ---------------|---------------|
 ---------0-----|-------------0-|
 -4--2----0--4--|--4--2----4--0-|
 -5--3----2--5--|--5--3----5--2-|
 -5--5----3--2--|--5--5----2--3-|
 {eot}
 
 Post-Chorus -
 
 {sot}
 ---------------|
 ---------------|
 ---------------|
 -4--2----5~~~--|
 -5--3----5~~~--|
 -5--5----6~~~--|
 {eot}
 
 Outro -
 
 {sot}
 --------------|
 --------------| Strum Over and over and over . . .
 --------------|
 -5----5----5--|
 -5----5----5--|
 -6----6----6--|
 {eot}
 
 Tabs by Revi Roza
 
 D/F#:
 E-X
 [B-3] 
 [G-2]D-0
 A-0
 [E-2] 
 Vers[C]e: Not [G]enough, [C]never [D/F#]too much,[C] [D] woman looked j[D/F#]ust l[G]ike love
 [C]Rolling [G]stone, [C]gather [D/F#]no moss,[C] [D] but leaves a trail[D/F#] of B[G]usted Stuff.
 
 Chorus: [D]I Know she's [D/F#]gonna leave my [G]broken heart [D/F#]behind
 [C]I take what she's [D/F#]given[G]
 [D]I know she's [D/F#]gonna leave my [G]broken heart [D/F#]behind
 [C]I take what she's [D/F#]given[G]
 
 Verse(same chord progression as before):
 Sweet sugar lips, pushed from the hips
 you know she looks just like love.
 Without a care, she floats above, she got me down here looking up.
 
 Chorus: [D]I know she's [D/F#]gonna leave my [G]broken heart [D/F#]behind
 [B]Yeah Yeah...
 
 Verse:
 when she moves, she moves so cool, she got me feeling like a fool
 But inside the devil hides, the woman looks just like love.
 
 Chorus
 
 [B]Yeah Yeah...