Song Information for Sleep to Dream Her

Song Title:Sleep to Dream Her
Artist:Matthews, Dave, Band
Hits:11
{t:Sleep to Dream Her}
 {st:Dave Matthews Band}
 
 Band:Dave Matthews Band
 Song: Sleep To Dream Her
 
 Intro/Verse
 Hit each chord 3 times single strokes up
 
 {sot}
 E:------------------------------------------------------------|
 B:-----12---------12--------12--------11--------10--------10--|
 G:-----11---------11--------11--------11--------9---------9---|
 D:-----9----------9---------9---------9---------7---------7---|
 A:------------------------------------------------------------|
 E:-11---------10---------9---------9---------9---------8------|
 {eot}
 [2] [2] [1] [1] [2][2]
 
 {sot}
 E:-------------------------------------------------------|
 B:----10--------9--------8---------8---------8--------7--|
 G:----9---------9--------7---------7---------7--------7--|
 D:----7---------7--------5---------5---------5--------5--|
 A:-------------------------------------------------------|
 E:-7---------7--------7---------6---------5--------5-----|
 {eot}
 [1] [1] [2] [2] [1][1]
 
 {sot}
 E:-----------------------------------|
 B:----5--------5--------5---------5--|
 G:----7--------7--------6---------6--|
 D:-----------------------------------|
 A:-----------------------------------|
 E:-5--------5--------5---------5-----|
 {eot}
 [1] [1] [1] [1] 
 
 Breakdown
 
 {sot}
 E:----------------------------------------------|
 B:-------------------------------------------2--|
 G:-------------------------------------------2--|
 D:---------2h3p2---------------2h3p2---------2--|
 A:-----3-----------3-------2-----------2---0-0--|
 E:-1-------------------0------------------------|
 {eot}
 1 3 2_4_2 3 1 2_3_2 1
 
 End Breakdown/Song
 Played instead of last A to "End Breakdown"
 
 {sot}
 E:-0-- E:-3--|
 B:-3-- B:-3--|
 G:-2-- G:-2--|
 D:-0-- or D:-0--|
 A:---- A:----|
 E:---- E:----|
 {eot}