Song Information for Angel

Song Title:Angel
Artist:Matthews, Dave, Band
Hits:11
{t:Angel}
 {st:Dave Matthews Band}
 
 
 {sot}
 -----------------------------------------------------------------------------
 -----------------------------------------------------------------------------
 {eot}
 
 Tuning: Tune down 1/2 step (Eb, Ab, C#, F#, Bb, Eb)
 
 I love this song, the band itself. I thought I'd try tabbing this. Another thing,
 Dave uses different picking, he doesn't just do a plain chord, so it will sound
 different.
 
 Intro:
 
 {sot}
 ------------------------------------------
 {eot}
 [C] [F] [C] [F] 
 Verse:
 
 {sot}
 ------------------------------------------
 {eot}
 [C] I call you up
 [F] You pick up
 [C] You call my bluff
 [F] On the cards of love
 [C] You hold to close
 [F] Your hands to your chest
 [C] I can't read you eyes
 [F] But I confess
 [G] It's lonely far
 [F] From you
 [C] Even when you're right by me
 [G] It's only why
 [F] I wait for you
 [C] To take my ha[F] - nd[C/E]
 
 Chorus:
 
 {sot}
 ------------------------------------------
 {eot}
 [D] Why do I beg like a [Em7]child [D/F#]for you can [Gm]- dy?
 [D] Why do I come after [Em7]you like I [D/F#]do? I love[Gm] you
 [Gm] Whate'[Dm/F]er you are
 [E7] I swear, [Gm/Bb]you'll be my[Gm/F] an - g[F]el, you
 
 Verse:
 
 {sot}
 ------------------------------------------
 {eot}
 [C] I play my cards
 [F] Best I can
 [C] But I lose my luck
 [F] When you're not here
 [C] My darling heart
 [F] Won't you please give in?
 [C] I may be strong
 [F] But I want you back again
 [G] When you're not here
 [F] Oh, it's hard to pretend
 [C] It's all alright....again
 [G] When you're not here
 [F] Love, it's hard to pretend
 [C] It's all alrigh[F]t.....[C/E]still
 
 ~Back To Chorus~
 
 Verse:
 
 {sot}
 ------------------------------------------
 {eot}
 [C] Watch the deck
 [F] And count your cards
 [C] Makes no sense
 [F] That I'm always losing
 [C] .....
 [F] When you're gone
 [C] .....
 [F] .....
 
 ~Back To Chorus~
 
 Outro:
 
 {sot}
 ------------------------------------------
 {eot}
 [C] .....
 [F] When you're gone
 [C] .....
 [F] .....
 
 
 THERE IT IS! Remember you must tune down a half step for this version to work!
 (There might be a version where you don't have to but this is just easier and
 it's how he played it) Chords below!
 
 [C] [F] [G] [C/E] [D] [Em7] [D/F#] [Gm] [Gm/Bb] [Gm/F] 
 {sot}
 eb|-0----1----3----3----2----3------------3-----3------3----|
 Bb|-1----1----0----1----3----3-----3------3-----3------3----|
 Gb|-0----2----0----0----2----0-----2------3-----0------3----|
 Db|-2----4----0----2----0----2-----0------5-----x------3----|
 Ab|-3----4----x--------------------x------5-----1-----------|
 Eb|------1----3--------------------2------3-----------------|
 {eot}