Song Information for So Right

Song Title:So Right
Artist:Matthews, Dave, Band
Hits:12
{t:So Right}
 {st:Dave Matthews Band}
 
 
 {sot}
 -=-=-=-=-=-=-=-=-=-=-=-=-=-=-=-=-=-=-=-=-=-
 {eot}
 Dave Matthews Band
 So Right
 L & M: David J. Matthews & Glen Ballard
 Everyday (2001)
 
 {sot}
 -=-=-=-=-=-=-=-=-=-=-=-=-=-=-=-=-=-=-=-=-=-
 {eot}
 
 Intro & Verse: Dmaj7 D/A
 
 B5(all instruments)
 
 {sot}
 E|-|--2-2-2--2-2-2-2-----------|--2-2-2--2-2-2-2-----------|-|
 B|-|--2h3-3--2-3-2-3-----------|--2h3-3--2-3-2-3-----------|-|
 G|-|--2h4-4--2-4-2-4--4-4-4-4--|--2h4-4--2-4-2-4--4-4-4-4--|-|
 D|-|------------------4-4-4-4--|------------------4-4-4-4--|-|
 A|-|------------------2-2-2-2--|------------------2-2-2-2--|-|
 e|-|---------------------------|---------------------------|-|
 E|-|----------|-|
 B|-|----------|-|
 G|-|--6-6-7b--|-|
 D|-|----------|-|
 A|-|----------|-|
 e|-|----------|-|
 {eot}
 
 Verse:
 
 Roll out down to midnight
 Then roll on downtown 'til it's light
 Because tomorrow we may die
 Oh, but tonight we're dancing in the faint light
 Don't you rob yourself of what you're feeling
 Don't rob yourself of all that you could be
 Roll hard 'til midnight
 Roll 'til it's light
 Come on now
 
 Chorus:
 [D]Stay up and m[G]ake some memori[Bm]es
 Yeah, [D/F#]with us n[G]ow
 [D]Roll the red carpet[G] out with frie[Bm]nds
 To w[D/F#]hom, to love a[G]nd roll on
 [D]Our love is s[G]o right[Bm]
 I won't waste[D/F#] a minute here t[G]onight
 [D]Our love is s[G]o right[Bm]
 And tonight m[D/F#]y dance is all a[G]bout you
 
 Verse:
 
 To midnight love you,
 Roll on and run the red lights
 You know the game now is keep it tight
 Oh, how I love your pretty rock-roll kisses
 Come on and stay with me
 Roll on and run the red lights
 Come on, this love is so right
 
 Chorus:
 
 Stay up and make some memories
 Yeah, with us now
 To roll the red carpet out with friends
 Oh, to love and roll on now
 Our love is so right
 I can taste
 We're in it here tonight
 Our love is so right
 And tonight my dance
 Is all about you
 
 Bridge:
 [E]I'm going [F#]crazy[A]
 [E]And it's all 'cause of yo[F#]u (it's all 'cause of y[A]ou)
 [E]I'm going[F#] under, over y[A]ou, over you...
 
 Sax Solo. Like Verse
 
 Verse.
 
 This time is so alive
 Everybody's tranced, dancing tonight
 Oh so beautiful, and so strange
 Oh, it was empty until you came...
 
 Chorus:
 
 Our love is so right
 Forget the clouds that rain on your light
 Our love is so right
 I'll not forget how you look right now
 Our love is so right
 Remember let's just move together
 Our love is so right
 I swear it would last forever
 Our love is so right
 Forget the clouds that rain down on you
 Our love is so right...
 
 Sax Solo. End.