Song Information for Spoon

Song Title:Spoon
Artist:Matthews, Dave, Band
Hits:10
{t:Spoon}
 {st:Dave Matthews Band}
 
 
 {sot}
 -------------------------------------------------------------------------------
 {eot}
 Spoon - Dave Matthews Band
 
 {sot}
 -------------------------------------------------------------------------------
 {eot}
 Tabbed by: Blake
 Email: deblieux@hotmail.com
 
 Tuning: standard
 
 
 [Em] [D] [C] [E] [Am] [D] [G] [D/F#] 
 {sot}
 e|----------------2----------------------0-------2----------3-------------------|
 B|----------------3----1-----------------1-------3----------3----------3--------|
 G|----------------2----0------1-1-1------2-------2----------0----------2--------|
 D|-----5-7-0------0----2------2-2-2------2-------0----------0----------0--------|
 A|-----7-7-0-----------3------2-2-2--------------------2----2----0-----0--------|
 E|----------------------------0-0-4--------------------3----3----2-----2--------|
 {eot}
 
 
 Verse 1:
 
 [Em]Spoon in sp[D]oon
 [C]Stirring my cof[E]fee
 [Am]I thought of y[D]ou
 [G]And turned to the g[D/F#]ate
 [Em]And on my way [D]came [C]up with the an[E]swers
 [Am]I scratched my he[D]ad
 [G]And the answers [D/F#]were gone
 
 Verse 2:
 
 [Em]From hand t[D]o hand,
 [C]Wrist to the el[E]bow
 [Am]Red blood sand[D]
 [G]Could Dad be G[D/F#]od?
 [Em]Crosses cro[D]ss h[C]ung out like a [E]wet rag
 [Am]Forgive you? W[D]hy?
 [G]You hung me out to [D/F#]dry
 
 Chorus:
 
 [Em]And maybe I[D]'m crazy
 [C]But laughing ou[E]t loud
 [Am]Makes the pain pa[D]ss by [G][D/F#]
 [Em]And maybe you[D]'re a little crazy
 [C]But laughing out l[E]oud m[Am]akes it all subsi[D]de [G][D/F#]
 [C]Holding, I'm[G/B] holding
 
 Ending:
 
 [C]I'm still falling,
 [G/B]I'm still falling
 
 Verse 1:
 Verse 2:
 Chorus:
 Ending:
 
 Enjoy! :) questions? leave a comment or email me at deblieux@hotmail.com