Song Information for Crush

Song Title:Crush
Artist:Matthews, Dave, Band
Hits:15
{t:Crush}
 {st:Dave Matthews Band}
 
 This song is usually in drop D, But this version is in regular tuning.
 
 
 {sot}
 "Crazy.....How it....Feels tonight"(verse) ---Strum---
 e--------------------------------------------
 b----3------3---------3----------------------
 g----4------0---------0----------------------
 d----4------4---------2----------------------
 a--2-2----2-2---------2----------------------
 E--------------------------------------------
 {eot}
 
 verse cont'd "Crazy, how you...."
 
 {sot}
 e--------------------------------------
 b-----------1--------------------------
 g-----------0--------------------------
 d--3---5----2-------------------------- Back to beginning
 a--3---5----3--------------------------
 E--1---3-------------------------------
 {eot}
 
 "Feels so right...."
 e----
 [b----]g-4--
 d-x--
 [a-2--] 
 [E----] 
 "lovely lady...." Strum
 
 {sot}
 e------------------------------------------------
 b---3------5-------------------------------------
 g---2------4---------------4---------------------
 d------------------10------4---------------------
 a------------------10------2---------------------
 E---3------5-------8-----------------------------
 {eot}
 
 back to verse
 
 Chorus"It's crazy, I'm thinkin"
 
 {sot}
 e------------------------------
 b------------------------------
 g------------5----4------------
 d--3----5----5----5------------
 a--3----5----3----2------------
 E--1----3----------------------
 {eot}
 
 Jam part 1 (Barre chords)
 [GG] [FF] [EE] 
 [GG] [FF] [EE] 
 [GG] [FF] [EE] [DD] [CC] [BB] [BbBb] [GG] [FF] [EE] 
 [GG] [FF] [EE] [DD] [CC] [BB] [BbBb] [GG] [FF] [EE] 
 outro: just pretty much play these chords and fade out
 
 {sot}
 e--------------------------------
 b---3----5----5------------------
 g---4----4----4------------------
 d---4----4----2------------------
 a---2----2----2------------------
 E--------------------------------
 {eot}