Song Information for The Last Stop

Song Title:The Last Stop
Artist:Matthews, Dave, Band
Hits:8
{t:The Last Stop}
 {st:Dave Matthews Band}
 
 
 {sot}
 -------------
 {eot}
 transcribed by Doug Thompson (jwtjta@aol.com)
 
 VERSE
 
 {sot}
 [-2-2------------2------------------------2-------------
 [-2-2------------2------------------------2-------------
 [-3-3------------3------------------------3-------------
 [-4-4------------4------------------------4-------------
 [-4-4-----1h2----4-----1-2-1-------1h2----4-------------
 [-2-2--2-3----3--2--2-3------3-2-3-----3--2-------------
 {eot}
 [ fire the sun is well asleep....
 
 {sot}
 [-------------------------------------------------------
 [------------11h12------------11-12-11--------11h12-----
 [-11-11-11-12-----12-11--11-12--------12-11-12-----12-11
 [-------------------------------------------------------
 [-------------------------------------------------------
 [-------------------------------------------------------
 {eot}
 
 VERSE 2
 
 {sot}
 [-2-2------------2-----------------------------2--------
 [-2-2------------2-----------------------------2--------
 [-3-3------------3-----------------------------3--------
 [-4-4------------4-----------------------------4--------
 [-4-4-----1h2----4---12--12--8--9-8------1h2---4--------
 [-2-2--2-3----3--2---10--10--9--7-6---2-3---3--2--------
 {eot}
 [ This is the last stop
 
 {sot}
 [-------------------------------------------------------
 [-------------11h12-------------------------------------
 [-11-11-11-12------12-11--------------------------------
 [-----------------------12-12-11-9-8-----8h9------------
 [------------------------------------9-10----10-9-------
 [-------------------------------------------------------
 {eot}
 
 BRIDGE?
 strum
 
 {sot}
 [-0----2--[-----------------------------------------2-------------------
 [-0----2--[-----------------------------------------2-------------------
 [-1----3--[-----------------------------------------3-------------------
 [-2----4--[-----------------------------------------4-------------------
 [-2----4--[----1h2--------1-2-1-2-4-5-4--2-1--------4-------------------
 [-0----2--[-2-3---3-2--2-3-------------------3h6p3--2-------------------
 {eot}
 [righteous[ go ahead and dream... the chosen one
 
 {sot}
 [-0-------[-------------------------------------------------------------
 [-0-------[------11h12------------11-12-11--12-14-15-14-12-11-----------
 [-1--11-11[-11-12-----12-11--11-12---------------------------12h15p12-11
 [-2-------[-------------------------------------------------------------
 [-2-------[-------------------------------------------------------------
 [-0-------[-------------------------------------------------------------
 {eot}
 
 CHORUS
 
 {sot}
 [-2---------2---------2----------2-----------------------------------
 [-3--2--2---3--2--2---3--2--2----2-----------------------------------
 [-2--2--2---2--2--2---2--2--2----3-----------------------------------
 [-0--2--2---0--2--2---0--2--2----4-----------------------------------
 [----0--x------0--x------0--x----4-----------------------------------
 [-------4---------4---------4----2-----------------------------------
 {eot}
 Here there's more than showing up, hope that we can break it down....
 
 "The Last Stop"
 
 Fire, The sun is well asleep
 Moon is high above
 Fire grows from the east
 
 How is this
 Hate so deep
 Lead us all so blindly killing killing
 
 Fools we are
 If hate's the gate to peace
 This is the last stop
 
 For raining tears, War
 The only way to Peace
 I don't fall for that
 
 Raining tears
 
 You're righteous, so righteous
 You're always so right
 Go ahead and dream
 Go ahead believe that you are the chosen one
 
 Raining tears
 
 Oh no, Gracious even God
 Bloodied the cross
 Your sins are washed enough
 
 Mother's cry
 "Is hate so deep
 Must a baby's bones this hungry fire feed?"
 
 As smoke clouds roll in
 The symphony of death
 This is the last stop
 
 Scream
 Right is wrong now
 Shut up you big lie
 
 This black and white lie
 You comb your hair to hide
 Your lying eyes
 
 You're righteous, so righteous
 You're always so right
 But why your lie
 Go ahead and dream
 Go ahead believe that you are the chosen one
 
 This is the last stop
 
 Here there's more than is showing up
 Hope that we can break it down
 It's not so black and white
 
 You're righteous, you're righteous
 You're righteous, you're always so right
 
 There you are nailing a good tree
 Then say forgive me, forgive me
 Why
 
 Raining tears
 This is the last stop
 
 Here there is more than is showing up
 Hope that we can break it down
 It's not so black and white