Song Information for Proudest Monkey

Song Title:Proudest Monkey
Artist:Matthews, Dave, Band
Hits:12
{t:Proudest Monkey}
 {st:Dave Matthews Band}
 
 
 {sot}
 =-=-=-=-=-=-=-=-=-=-=-=-=-=
 {eot}
 Dave Matthews Band
 Proudest Monkey
 Crash
 Tabbed by Leandro Koren
 leandro_koren@yahoo.com.ar
 
 {sot}
 =-=-=-=-=-=-=-=-=-=-=-=-=-=
 {eot}
 
 Intro & Verse & Chorus:
 Just play G# and C#maj7 along the whole song.
 
 Dave's Guitar.
 
 [G#] [C#maj7] [G#] [C#maj7] 
 {sot}
 E|-|----------------------------------------------|-|
 B|-|----------------------------------------------|-|
 G|-|----------------------------------------------|-|
 D|-|-----6-----6-----6--------6-----6-----6-------|-|
 A|-|--------6-----4--------------6------4---------|-|
 e|-|--4-----------------4--4-----------------4-4--|-|
 {eot}
 
 Tim's Guitar:
 
 
 {sot}
 E||------------8----4------------|-|
 B||------------9----6----6----9--|-|
 G||------8---------------6----8--|-|
 D||--6---------------------------|-|
 A||------------------------------|-|
 e||------------------------------|-|
 {eot}
 
 Verse:
 
 Swing in this tree
 Oh I am bounce around so well
 Branch to branch, limb to limb you see
 All in a day's dream
 I'm stuck
 Like the other monkeys here
 I am a humble monkey
 Sitting up in here again
 But then came the day
 I climbed out of these safe limbs
 Ventured away
 Walking tall, head high up and singing
 I went to the city
 Car horns, corners and the gritty
 Now I am the proudest monkey you've ever seen
 Monkey see, monkey do, yeah
 
 Tim's Solo:
 
 
 {sot}
 E|-|------------------------------------------------------------|-|
 B|-|------------------------------------------------------------|-|
 G|-|----------8----------------------------8--10p8h10-----------|-|
 D|-|----10---------8----6----10-6-6----8---------------11p10h11-|-|
 A|-|-6-----6----6----6----6--------6----6-----------------------|-|
 e|-|------------------------------------------------------------|-|
 E|-|--------------------------------------------------------------|-|
 B|-|----11---9----------------------------------------------------|-|
 G|-|--8----8---10----8--------------------------------------------|-|
 D|-|--------------11---8-10-------6---8-10---8p6-----10--8---6----|-|
 A|-|------------------------11-8----8------------6-8-------8---6--|-|
 E|-|--------------------------------------------------------------|-|
 E||----------------|-|
 B||----------------|-|
 G||----------------|-|
 D||------8--6---8--|-|
 A||--8-6------8----|-|
 e||----------------|-|
 {eot}
 
 Verse:
 
 Then comes the day
 Staring at myself I turn to question me
 I wonder do I want the simple, simple life that I once lived in well
 Oh things were quiet then
 In a way they were the better days
 But now I am the proudest monkey you've ever seen
 Monkey see, monkey do, yeah
 
 Chorus:
 
 Monkey see, monkey do
 Monkey see, monkey do
 Monkey see, monkey do
 Monkey see, monkey do
 Monkey see, monkey do