Song Information for Too Much

Song Title:Too Much
Artist:Matthews, Dave, Band
Hits:16
{t:Too Much}
 {st:Dave Matthews Band}
 
 Tuning: Standard EADGBe
 
 This song isn‚??t too bad, there‚??s a great saxophone solo
 I couldn‚??t figure out, but most people won‚??t notice anyway,
 so I think its okay. There are really only two chords
 in this song; E and A. I got the intro riff from ‚??Too Much‚?? Bass Tab. I figured it would just be easier to put it in here too. And yes this is my first tab.
 
 Intro: If you can play these as barre chords
 it sound good if you can‚??t, just play them as power chords or
 just play the E string.
 
 
 {sot}
 |--2-----3---------7---------------------|
 |--2-----3---------7---------------------|
 |--3-----4---------8---------------------|
 |--4-----5---------9---------------------|
 |--4-----5---------9---------------------|
 |--2-----3---------7---------------------|
 |--2-----3---------6---------------------|
 |--2-----3---------6---------------------|
 |--3-----4---------7---------------------|
 |--4-----5---------8---------------------|
 |--4-----5---------8---------------------|
 |--2-----3---------6---------------------|
 {eot}
 
 Play E A (played like in Verse 1) a couple of times.
 
 Verse 1: E 02xxxx
 A x02xxx
 
 [E]Straight in, su[A]ck up, and go, cool it, sw[E]allow, [A]swallow. Breathe dee[E]p, take it a[A]ll in it comes [E][A]
 
 cheap.
 
 Then we continue with the rest of the lyrics for verse 1. All the timing is pretty easy to figure out even if you‚??ve never heard the song.
 
 Chorus: E 022100
 A x02220
 
 [E]I eat to[A]o much.
 [E]I drink [A]too much.
 [E]I want t[A]oo much.
 [E]Too much[A].
 
 for lyrics. See ya'!