Song Information for Crash Into Me

Song Title:Crash Into Me
Artist:Matthews, Dave, Band
Hits:10
{t:Crash Into Me}
 {st:Dave Matthews Band}
 
 Crash (Into me) by Dave Mathews band
 By Voltron L.L.
 
 Intro:
 
 {sot}
 [-------15-------17-17p15---------------15----15/19--19h21]
 [-15h17----17-15-------------------15h17--1715------------]
 [---------------------------------------------------------]
 [---------------------------------------------------------]
 {eot}
 
 Verse:
 
 {sot}
 [-6--------------------4----] [-6-------4----]
 [------7--9---2--6---7----2-] [-----6-7----2~]
 [---------------------------] [--------------]
 [---------------------------]x4 [--------------]
 {eot}
 
 Chorse:
 
 {sot}
 [----------------------------------] [-------------------------------------]
 [----------------------------------] [-------------------------------------]
 [----------4-----------------------] [-4---4--4-----4--0-------------------]
 [--------------5--7--0--4--5--7--0-] [----5--5-----5--5----7--0--4-5--7--0-]
 {eot}
 Into me....and I come into
 
 Verse 2:
 
 {sot}
 [-6--------------------4----] [-6-------4----]
 [------7--9---2--6---7----2-] [-----6-7----2~]
 [---------------------------] [--------------]
 [---------------------------]x2 [--------------]
 {eot}
 
 Chorse 2:
 
 {sot}
 [----------------------------------] [-------------------------------------]
 [----------------------------------] [-------------------------------------]
 [----------4-----------------------] [-4---4--4-----4--0-------------------]
 [--------------5--7--0--4--5--7--0-] [----5--5-----5--5----7--0--4-5--7--0-]
 {eot}
 baby....and I come into
 
 Chorse 3:
 
 {sot}
 [-6--------------------4----] [-6-------4----]
 [------7--9---2--6---7----2-] [-----6-7----2~]
 [---------------------------] [--------------]
 [---------------------------]x2 [--------------]
 {eot}
 
 Verse 3:
 
 {sot}
 [----------------------------------]
 [----------------------------------]
 [----------4-----------------------]
 [--------------5--7--0--4--5--7--0-]x7 
 {eot}
 
 Ending, you'll hear the change.
 
 {sot}
 [--------------------------]
 [--------------------------]
 [---------------------4----]
 [---5-050--535-7-070-7-7---]
 {eot}