Song Information for Ants Marching

Song Title:Ants Marching
Artist:Matthews, Dave, Band
Hits:14
{t:Ants Marching}
 {st:Dave Matthews Band}
 
 Dave Mathews Band - Ants Marching
 
 Notes*
 -Tacet = a musical term simply meaning MUTE
 -The outro is only how my band leaves the song
 and how i leave it when im playing alone in
 front of others. The Rythem is hard to
 explain for it E-mail me at MusicEAD@aol.com
 if you would like me to explain it more elaboratley
 -Phrase 2 is played through all verses and interludes
 -The Chorus is a bit messed up (i felt lazy this took
 long enough) but i put which beats each chords should
 be on.
 -If anyone has ANY recomendations for the bridge
 please E-mail me MusicEAD@aol.com and i will
 edit it thank you.
 -For the intro the D and Dsus4 chords may also
 be played like so (again this is how i play them)
 ________________________________________
 | D = X X 0 7 7 5 | Dsus4 = X X 0 7 8 5 |
 
 {sot}
 ----------------------------------------
 {eot}
 
 Chords - E A D G B E
 D - X X 0 2 3 2
 Dsus4 - X X 0 2 3 3
 G - 3 2 0 0 3 3
 Bm - X 2 4 4 3 2
 Gsus4 - 3 3 0 0 3 3
 
 Intro:
 
 Phrase 1
 | 1(3)+ + | 1(3)+ + | 1(3)+ + | 1(3)+ + |
 | D | Dsus4 | D | Dsus4 |
 
 {sot}
 E|-2---2-2-|-3---3-3-|-2---2-2-|-3---3-3-|
 B|-3---3-3-|-3---3-3-|-3---3-3-|-3---3-3-|
 G|-2---2-2-|-2---2-2-|-2---2-2-|-2---2-2-|
 D|-0---0-0-|-0---0-0-|-0---0-0-|-0---0-0-|
 A|---------|---------|---------|---------|
 E|---------|---------|---------|---------|
 {eot}
 
 Phrase 2 (for verses too)
 | 1 + a 2 + a 3 + a 4 + | 1 + a 2 + a 3 + a 4 + |
 | D | G |
 
 {sot}
 E|-2--X-X-X----------------|-3--X-X-X----------------|
 B|-3--X-X-X----------------|-3--X-X-X----------------|
 G|-2--X-X-X----------------|-0--X-X-X------0-----0---|
 D|-0--X-X-X------4-----4---|-0--X-X-X----------------|
 A|----X-X-X--4h5---4h5---5-|-2--X-X-X--4h5---4h5---5-|
 E|----X-X-X----------------|-3--X-X-X----------------|
 {eot}
 
 Verse 1:
 [D]He wakes up in the [G]morning
 [D]Does his teeth, bite to [G]eat and he's rolling.
 [D]He never changes [G]a thing
 [D]The week ends, the [G]week begins. She thinks,
 [D]We look at each [G]other
 [D]Wondering what the [G]other is thinking
 [D]But we never say [G]a thing
 [D]And these crimes be[G]tween us grow deeper.
 
 Solo 1:
 
 | 1 + a 2 + a 3 + a 4 + | 1 + a 2 + a 3 + a 4 + |
 | D | G |
 
 {sot}
 E|-2--X-X-X----------------|-3--X-X-X----------------|
 B|-3--X-X-X----------------|-3--X-X-X----------------|
 G|-2--X-X-X----------------|-0--X-X-X------0-----0---|
 D|-0--X-X-X------4-----4---|-0--X-X-X----------------| X2
 A|----X-X-X--4h5---4h5---5-|-2--X-X-X--4h5---4h5---5-|
 E|----X-X-X----------------|-3--X-X-X----------------|
 {eot}
 
 
 Chorus 1:
 [D]Take these chances[G]
 [D]Place them in me [G]that sounds like a
 [Bm]quieter [D]time
 [G]Lights down you [Bm]up and [A]die
 
 Interlude:
 
 | 1 + a 2 + a 3 + a 4 + | 1 + a 2 + a 3 + a 4 + |
 | D | G |
 
 {sot}
 E|-2--X-X-X----------------|-3--X-X-X----------------|
 B|-3--X-X-X----------------|-3--X-X-X----------------|
 G|-2--X-X-X----------------|-0--X-X-X------0-----0---|
 D|-0--X-X-X------4-----4---|-0--X-X-X----------------| X2
 A|----X-X-X--4h5---4h5---5-|-2--X-X-X--4h5---4h5---5-|
 E|----X-X-X----------------|-3--X-X-X----------------|
 {eot}
 
 Verse 2:
 [D]Goes to visit [G]his mommy
 She [D]feeds him well, has con-[G]cerns he forgets them
 [D]And remembers [G]be-ing small
 [D]Playing under the [G]table and dreaming
 
 Chorus:
 1 2 | 1 3 4
 Bm D | G Bm - A
 Take these chan-ces
 [Bm]Place them [D]in me[G] tha[Bm]t soun[A]ds like a
 [Bm]quieter [D]time
 [G]Lights down you[Bm] up and[A] die
 Interlude/Solo (Verse Progression) X4
 
 Verse 3:
 [D]Driving in on this [G]highway
 [D]All these cars end [G]up on the sidewalk
 D (tacet) G
 People in every direc-tion
 D (tacet) G (tacet)
 No words exchanged, no time to exchange them
 
 Bridge:
 When [G]all the [G/F#]little [Em]ants are marching
 [G]Red and [G/F#]black an[Em]tennas waving
 [G]They all [G/F#]do it the[Em] same
 [G]They all [G/F#]do it the[Em] same way
 
 Interlude:
 | 1 + a 2 + a 3 + a 4 + | 1 + a 2 + a 3 + a 4 + |
 | D | G |
 
 {sot}
 E|-2--X-X-X----------------|-3--X-X-X----------------|
 B|-3--X-X-X----------------|-3--X-X-X----------------|
 G|-2--X-X-X----------------|-0--X-X-X------0-----0---|
 D|-0--X-X-X------4-----4---|-0--X-X-X----------------|
 A|----X-X-X--4h5---4h5---5-|-2--X-X-X--4h5---4h5---5-|
 E|----X-X-X----------------|-3--X-X-X----------------|
 {eot}
 
 Verse 4:
 [D]Candyman tempting the thoughts of a
 [G]Sweet tooth, torturing the weight loss
 [D]Program cutting the corners
 of a [G]loose end, loose end, cut cut
 [D]On the fence, not to of-fend [G]cut cut, cut cut
 
 Chorus:
 1 2 | 1 3 4
 Bm D | G Bm - A
 Take these chan-ces
 [Bm]Place them [D]in me[G] tha[Bm]t soun[A]ds like a
 [Bm]quieter [D]time
 [G]Lights down you[Bm] up and[A] die
 
 Outro (self-made): (Switch Chord Progression Order On Purpose)
 [D] [G] 
 {sot}
 E|----------------------------------|----------------------------------|
 B|----------------------------------|----------------------------------|
 G|----------------------------------|----------------11----11----11----|
 D|----------------11----11----11----|-11h12-12-12-12----12----12----12-| X4
 A|-11h12-12-12-12----12----12----12-|----------------------------------|
 E|----------------------------------|----------------------------------|
 {eot}
 
 [G]Lights down you[Bm] up and[A] die