Song Information for What Would You Say

Song Title:What Would You Say
Artist:Matthews, Dave, Band
Hits:9
{t:What Would You Say}
 {st:Dave Matthews Band}
 
 
 {sot}
 ----------------------------------
 {eot}
 What Would You Say
 
 {sot}
 ----------------------------------
 {eot}
 Transcribed by:
 Sean Spicer (driver8@phy.duke.edu)
 
 {sot}
 ----------------------------------
 {eot}
 
 Intro/verses
 
 [A] [G] 1/2 bend
 
 {sot}
 e---------------------------------3--3---------------|
 B--------0------(3/)5-5-5-5-------3--3---2b-0--------|
 G--------0-(5\2)------------------0--0--------2--0---| repeat
 D--------0----------7-7-7-5-------0--0---------------|
 A--------0------------------------2--2---------------|
 E---3/5---------------------5--3--3--3---------------|
 {eot}
 
 Pre-Chorus
 
 {sot}
 ----------
 {eot}
 
 [F] [G] [A] [G] [F] [E] [F] [G] 
 
 {sot}
 e--1---3---5---3---1---0---1---3-|
 B--1---3---5---3---1---0---1---3-|
 G--2---4---6---4---2---1---2---4-| back to intro
 D--3---5---7---5---3---2---3---5-|
 A--1---5---7---5---1---2---1---5-|
 E--1---3---5---3---1---0---1---3-|
 {eot}
 
 
 Super-Jam
 
 {sot}
 ---------
 ---------
 {eot}
 
 First Part
 
 {sot}
 --------
 {eot}
 
 p = pull off
 
 Parts 1 & 3:
 What Dave plays here is not very defined. Basically, the only difference
 between all the parts is the part after the A/Bb/B. Here's a basic example
 of what Dave might play:
 
 [A7] [A] [Bb] [B] 
 
 {sot}
 e-------------------------------------------|
 B-------------------------------------------|
 G-------7--6-------3---4--------------------|
 D-------5--5---7---3---4--------------------|
 A---0----------7---1---2--------------------|
 E--------------5-----------0---3p0---3p0----|
 {eot}
 
 Part 2:
 
 [A7] [A] [Bb] [B] 
 
 {sot}
 e-----------------------------------------------|
 B-----------------------------------------------|
 G-------7--6-------3---4----7-7--9-9--11--9-----|
 D-------5--5---5---3---4------------------------|
 A---0----------5---1---2----5-5--7-7--9---7-----|
 E--------------7--------------------------------|
 {eot}
 
 Part 4:
 
 
 [A7] [A] [Bb] [B] 
 
 {sot}
 e-----------------------------------------------|
 B-----------------------------------------------|
 G-------7--6-------3---4----7/9--9-9------------|
 D-------5--5---7---3---4------------------------|
 A---0----------7---1---2----5/7--7-7------------|
 E--------------5--------------------------------|
 {eot}
 
 Variations on octaves: There are a few variations Dave plays. The octaves
 that fit in this section are: A B C# D E F# G
 
 
 Second Part
 
 {sot}
 -----------
 {eot}
 
 Variation 1:
 
 [A9] 
 
 {sot}
 e---12---12------------------------------|
 B---12---12------------------------------|
 G---12---12---6--7--4--6-----------------|
 D---11---11---------------7--9--5--7-----|
 A---12---12---4--5--2--4-----------------|
 E-------------------------5--7--3--5-----|
 {eot}
 
 Variation 2:
 
 [A9] 
 
 {sot}
 e---12---12------------------------------|
 B---12---12---15-15-15-15-15-15-15-15----|
 G---12---12---12-12-12-12-12-12-12-12----|
 D---11---11------------------------------|
 A---12---12------------------------------|
 E----------------------------------------|
 {eot}