Song Information for Save Me

Song Title:Save Me
Artist:Matthews, Dave
Hits:7
{t:Save Me}
 {st:Dave Matthews}
 
 tabbed by: dominic vitiello
 email: dommm@bellsouth.net
 
 Just a few changes to some of the other tabs out there that I couldn't get to
 sound quite right. I think the others used the MTV live Dave appearance for
 theirs, but the album version, which I used, sounds a bit different.
 
 G (occasionally don't mute - let the last notes ring)
 
 {sot}
 E|------------3----------X-X-) E|------------3-----------X-X-)
 B|------------3----------M-M-) B|------------3-----------M-M-)
 G|------------4----------U-U-) G|------------4-----------U-U-)
 D|-------5----3----3-5---T-T-) D|-------5----3----10-12--T-T-)
 A|-----5-----------------E-E-) A|-----5------------------E-E-)
 E|---3-----3-------------X-X-) E|---3-----3--------------X-X-)
 {eot}
 
 Driving through the desert I met a man...
 
 he told me of his crazy plan,
 
 [F] [C] 
 {sot}
 E|--1----3-----)
 B|--1----5-----)
 G|--2----5 ----)
 D|--3----5-----)
 A|--3----3-----)
 E|--1----X-----) 
 {eot}
 
 he'd been walking there for twenty days,
 
 Same G progression as above
 
 {sot}
 E|------------3----------X-X-) E|------------3-----------X-X-)
 B|------------3----------M-M-) B|------------3-----------M-M-)
 G|------------4----------U-U-) G|------------4-----------U-U-)
 D|-------5----3----3-5---T-T-) D|-------5----3----10-12--T-T-)
 A|-----5-----------------E-E-) A|-----5------------------E-E-)
 E|---3-----3-------------X-X-) E|---3-----3--------------X-X-)
 {eot}
 
 He was gonna walk on, for twenty more.
 
 F, C, G progression through "Come on save me, save me" verses
 
 Stranger, if you please: Or am I too far gone:
 
 {sot}
 E|-----3-----3-----3--) E|------0---------0---)
 B|-----3-----3-----0--) B|------1---------1---)
 G|-----0-----2-----0--) G|------2---------2---)
 D|-----0-----0-----2--) D|------2---------0---)
 A|-----X-----X-----2--) A|------0---------3---)
 E|-----3-----2-----0--) E|------X---------X---)
 {eot}
 
 ...To get back home
 
 Return to G, F, C progression again
 
 Bridge:
 
 I don't need you to stop the sunshine...
 
 {sot}
 E|---------------------------)
 B|---------------------------)
 G|----7----7 ---7----7----7--) repeat 3x
 D|----5----0----5----5----5--)
 A|----X----X----X----X----X--)
 E|----7----5----5----3----7--)
 {eot}
 
 (End verse) Might try saving yourself: G, F, C chord progression