Song Information for In the End

Song Title:In the End
Artist:Matthew, Scott
Hits:7
{t:In the End}
 {st:Scott Matthew}
 
 By Scott Matthew
 
 Capo 5th fret
 
 Intro
 [G6] [G6(b5)] 
 {sot}
 |---------------0-----------------------0------------|
 |---------3-----------3-----------2-----------2------|
 |------0-----0-----0-----0-----0-----0-----0-----0---|
 |----------------------------------------------------|
 |----------------------------------------------------|
 |---3-----------------------3------------------------|
 {eot}
 
 [Cadd9] [A7sus4] 
 {sot}
 |---------------0-----------------------0------------|
 |---------3-----------3-----------3-----------3------|
 |------0-----0-----0-----0-----0-----0-----0-----0---|
 |----------------------------------------------------|
 |---3-----------------2-----0------------------------|
 |----------------------------------------------------|
 {eot}
 
 Verse
 [G] [G/D] 
 {sot}
 |---------------3-----------------------3------------|
 |---------0-----------0-----------3-----------3------|
 |------0-----0-----0-----0-----4-----4-----4-----4---|
 |---------------------------0------------------------|
 |----------------------------------------------------|
 |---3------------------------------------------------|
 {eot}
 
 [C] [G] 
 {sot}
 |---------------0-----------------------3------------|
 |---------1-----------1-----------0-----------0------|
 |------0-----0-----0-----0-----0-----0-----0-----0---|
 |----------------------------------------------------|
 |---3------------------------------------------------|
 |---------------------------3------------------------|
 {eot}
 
 [G] [G/D] 
 {sot}
 |---------------3-----------------------3------------|
 |---------0-----------0-----------3-----------3------|
 |------0-----0-----0-----0-----4-----4-----4-----4---|
 |---------------------------0------------------------|
 |----------------------------------------------------|
 |---3------------------------------------------------|
 {eot}
 
 [C] [G/D] 
 {sot}
 |---------------0-----------------------3------------|
 |---------1-----------1-----------3-----------3------|
 |------0-----0-----0-----0-----4-----4-----4-----4---|
 |---------------------------0------------------------|
 |---3------------------------------------------------|
 |----------------------------------------------------|
 {eot}
 
 Chorus
 [Am] [D] 
 {sot}
 |---------------0-----------------------2------------|
 |---------1-----------1-----------3-----------3------|
 |------2-----2-----2-----2-----2-----2-----2-----2---|
 |---2-----------------------0------------------------|
 |----------------------------------------------------|
 |----------------------------------------------------|
 {eot}
 
 [G] [E] 
 {sot}
 |---------------3-----------------------0------------|
 |---------0-----------0-----------0-----------0------|
 |------0-----0-----0-----0-----1-----1-----1-----1---|
 |----------------------------------------------------|
 |----------------------------------------------------|
 |---3-----------------------0------------------------|
 {eot}
 
 [Am] [D] 
 {sot}
 |---------------0-----------------------2------------|
 |---------1-----------1-----------3-----------3------|
 |------2-----2-----2-----2-----2-----2-----2-----2---|
 |---2-----------------------0------------------------|
 |----------------------------------------------------|
 |----------------------------------------------------|
 {eot}
 
 [Am] [D] 
 {sot}
 |---------------0-----------------------2------------|
 |---------1-----------1-----------3-----------3------|
 |------2-----2-----2-----2-----2-----2-----2-----2---|
 |---2-----------------------0------------------------|
 |----------------------------------------------------|
 |----------------------------------------------------|
 {eot}
 
 Verse
 
 Chorus
 
 Intro
 
 Chorus